Oops, an error
Loading. Please wait.

Shake The Ground intro tab

version 1
version 1

Intro

Whole song

2,194 views 1 this week
4 commentsread comments
1 2 3 4 5
x 3
add to favorites
×
Save as Personal and add changes to this tab that will be seen only by you. Learn more ›
×
You can save this tab as Personal to edit and correct it or add notes. All changes will be seen only by you. Learn more »
launch autoscroll
font size
0
reset
how to read this tab
guitar tuner
edit
Autoscroll
slow
fast
+/-
esc
set tempo
stop
e|-------------------------------------------------------------------------|
B|-------------------------------------------------------------------------|
G|-------------------------------------------------------------------------|
D|-----4-----------4--------4--------------2-------------------------------|
A|-----------------------------2--0--2--4-----4--2--0----------------------|
E|--2-----2--2--2-----2--2-------------------------------------------------|


Pretty basic. Sounds awesome though. First tab so rate and comment?
Suggest correction
Creating personal tab
Creating personal tab
You can edit any tab online and save it as your Personal.

You can edit, replace or remove any tab part or add personal notes – all changes will be seen only by you.

Personal tabs can be accessed anytime from any device, even offline.
Learn more »
Give kudos to tab author, rate the tab!
1 2 3 4 5
comments
print report bad tab
4 comments total. Showing first comments.
0 reply
iceman18 20 Jun 10, 2012 11:17 AM

Looks great, do you have a complete tab or is this as far as you have gotten?

0 reply
madison_ann_ftw 80 Jun 10, 2012 01:47 PM

This is all I've got right now. I'll try and work out more.

0 reply
Jay Landman 10 Jan 28, 2013 07:05 AM

e|-------------------------------------------------------------------------|
B|-------------------------------------------------------------------------|
G|-------------------------------------------------------------------------|
D|-----4-----------4--------4--------------2-------------------------------|
A|-----------------------------2--0--2--3------3--2--0---------------------|
E|--2-----2--2--2-----2--2-------------------------------------------------|

I personally think it sounds more dissonant and minor, than major- and it makes sense as later for the breakdown they go: F#5, A5, B5, C5, B5, A5, F#5 where the solo takes place.

guest
You may want to rate the tab now too:
select rating
Wanna post a correction for this tab? Suggest correction