Oops, an error
Loading. Please wait.

Too Many Faces Tab

version 1
version 1

Whole song

6,606 views 12 this week
1 commentread comment
1 2 3 4 5
accurate
x 6
add to favorites
launch autoscroll
font size
0
reset
how to read this tab
guitar tuner
Autoscroll
slow
fast
+/-
esc
set tempo
stop
Help us to improve Ultimate-Guitar.com Take our survey!
×
Author
Too Many Faces - Cherri Bomb
Written by: Julia Pierce, Miranda Miller, Nia Lovelis, Rena Lovelis
Album: This is the end of control
Tabs by Matt Schacter (@Kirbsauce)Tweet me your thoughts.

MY APOLOGIES IVE BEEN NOTIFIED THAT I WROTE MY TABS UPSIDE-DOWN. 

Intro Riff
D|----0-0-0-0-0--0--0--0--0-----0---------0-0-0-0-0--0--0--0--0-----0-|
A|----5-5-7-7-9--9--9--9--9-----9---------5-5-7-7-9--9--9--9--9-----9-|
D|----x-x-x-x-x--x--x--x--x-----x---------x-x-x-x-x--x--x--x--x-----x-|
G|----7-7-9-9-11-11-11-11-11h12-11--------7-7-9-9-11-11-11-11-11h12-11|
B|--------------------------------------------------------------------|
E|--------------------------------------------------------------------|

 |-9-9--9--9--9--9--9--9--9--9--9--9--9-9--9--9--9--9--9--9--9--9--9--9-|
 |-9-9--9--9--9--9--9--9--9--9--9--9--9-9--9--9--9--9--9--9--9--9--9--9-|
 |-9-9--11-11-12-12-12-12-12-12-12-12-9-9-11-11-12-12-12-12-12-12-12-12-| x3
 |----------------------------------------------------------------------|
 |----------------------------------------------------------------------|
 |----------------------------------------------------------------------|

Verse (Play 16th notes for two bars of 4/4 for each note listed)
Guitar 1:

D|-0-0-0-0-0-0-0-0-0-0-0-0-0-0-0-0------------------------------------|
A|-----------------------------------2-2-2-2-2-2-2-2-2-2-2-2-2-2-2-2--|
D|--------------------------------------------------------------------| x2
G|--------------------------------------------------------------------|
B|--------------------------------------------------------------------|
E|--------------------------------------------------------------------|

Guitar 2 (lead): (Play on the repetition)
(The rhythm I put here isn't exactly how it's played, I'm sure. But I think it sounds lovely.)

D|--------------------------------------------------------------------|
A|--------------------------------------------------------------------|
D|--------------------------------------------------------------------|
G|-------------------------------------2-2---2------2-2-----2-2-22222-|
B|--5-5---5------5-5h7r5---5--5555---4----4-4-----4-----4-4-----44444-|
E|-7---7-7------7---------7---7777------------------------------------|

Chorus, yo. (16th notes one bar of 4/4 fot both of the following chords)

D|-5555555555555555---------------------------------------------------|
A|-5555555555555555-5555555555555555--2-2-4-4-5-5-5-5-5-7-7-7---------|
D|-5555555555555555-7777777777777777--x-x-x-x-x-x-x-x-x-x-x-x---------|
G|------------------7777777777777777--4-4-6-6-7-7-7-7-7-9-9-9---------|
B|--------------------------------------------------------------------|
E|--------------------------------------------------------------------|

 |-----------------------------|
 |-4-4-5-5-7-7-7-7-7-9--9--9---|
 |-x-x-x-x-x-x-x-x-x-x--x--x---|
 |-6-6-7-7-9-9-9-9-9-11-11-11--| x2
 |-----------------------------|
 |-----------------------------|

Back to the intro riff (one play through)

D|----0-0-0-0-0--0--0--0--0-----0---------0-0-0-0-0--0--0--0--0-----0-|
A|----5-5-7-7-9--9--9--9--9-----9---------5-5-7-7-9--9--9--9--9-----9-|
D|----x-x-x-x-x--x--x--x--x-----x---------x-x-x-x-x--x--x--x--x-----x-|
G|----7-7-9-9-11-11-11-11-11h12-11--------7-7-9-9-11-11-11-11-11h12-11|
B|--------------------------------------------------------------------|
E|--------------------------------------------------------------------|

 |-9-9--9--9--9--9--9--9--9--9--9--9--9-9--9--9--9--9--9--9--9--9--9--9-|
 |-9-9--9--9--9--9--9--9--9--9--9--9--9-9--9--9--9--9--9--9--9--9--9--9-|
 |-9-9--11-11-12-12-12-12-12-12-12-12-9-9-11-11-12-12-12-12-12-12-12-12-| x1
 |----------------------------------------------------------------------|
 |----------------------------------------------------------------------|
 |----------------------------------------------------------------------|

2nd Verse. It's the same as the first verse with some little leads over top. Just play 
around with the notes I already supplied you with.

Guitar 1
D|-0-0-0-0-0-0-0-0-0-0-0-0-0-0-0-0------------------------------------|
A|-----------------------------------2-2-2-2-2-2-2-2-2-2-2-2-2-2-2-2--|
D|--------------------------------------------------------------------| x2
G|--------------------------------------------------------------------|
B|--------------------------------------------------------------------|
E|--------------------------------------------------------------------|

Guitar 2: NOT THE SAME RHYTHM. Use these notes to make your own lead.
D|--------------------------------------------------------------------|
A|--------------------------------------------------------------------|
D|--------------------------------------------------------------------|
G|-------------------------------------2-2---2------2-2-----2-2-22222-|
B|--5-5---5------5-5h7r5---5--5555---4----4-4-----4-----4-4-----44444-|
E|-7---7-7------7---------7---7777------------------------------------|

Chorus 2: Exactly the same as chorus 1.

D|-5555555555555555---------------------------------------------------|
A|-5555555555555555-5555555555555555--2-2-4-4-5-5-5-5-5-7-7-7---------|
D|-5555555555555555-7777777777777777--x-x-x-x-x-x-x-x-x-x-x-x---------|
G|------------------7777777777777777--4-4-6-6-7-7-7-7-7-9-9-9---------|
B|--------------------------------------------------------------------|
E|--------------------------------------------------------------------|

 |-----------------------------|
 |-4-4-5-5-7-7-7-7-7-9--9--9---|
 |-x-x-x-x-x-x-x-x-x-x--x--x---|
 |-6-6-7-7-9-9-9-9-9-11-11-11--| x2
 |-----------------------------|
 |-----------------------------|

Bridge:

D|-----------------------------|  |-99-99-99---------------------------|
A|-55-55-55--------------------|  |-99-99-99---------------------------|
D|-77-77-77--------------------|x2|-99-99-99-----------11b12r11--------|x1
G|-77-77-77---9b11r9p7-11b12r11|  |-----------9b11r9p7-----------------|
B|-----------------------------|  |------------------------------------|
E|-----------------------------|  |------------------------------------|

 |-99-99-99----------|
 |-99-99-99----------|
 |-99-99-99----------|x1 (Repeat this cycle twice)
 |----------9b11-----|
 |-------------------|
 |-------------------|

This next part it kind of hard to hear, so forgive me if I'm wrong.

D|-22222222444444440000000000000000-22222222444444445555555555555555----|
A|-22222222444444440000000000000000-22222222444444445555555555555555----|
D|-22222222444444440000000000000000-22222222444444445555555555555555----|
G|----------------------------------------------------------------------|
B|----------------------------------------------------------------------|
E|----------------------------------------------------------------------|

Then this part again:

D|-----------------------------|  |-99-99-99---------------------------|
A|-55-55-55--------------------|  |-99-99-99---------------------------|
D|-77-77-77--------------------|x2|-99-99-99-----------11b12r11--------|x1
G|-77-77-77---9b11r9p7-11b12r11|  |-----------9b11r9p7-----------------|
B|-----------------------------|  |------------------------------------|
E|-----------------------------|  |------------------------------------|

 |-99-99-99----------|
 |-99-99-99----------|
 |-99-99-99----------|x1 (Repeat this cycle twice)
 |----------9b11-----|
 |-------------------|
 |-------------------|

Then the final chorus:

D|-5555555555555555---------------------------------------------------|
A|-5555555555555555-5555555555555555--2-2-4-4-5-5-5-5-5-7-7-7---------|
D|-5555555555555555-7777777777777777--x-x-x-x-x-x-x-x-x-x-x-x---------|
G|------------------7777777777777777--4-4-6-6-7-7-7-7-7-9-9-9---------|
B|--------------------------------------------------------------------|
E|--------------------------------------------------------------------|

 |-----------------------------|
 |-4-4-5-5-7-7-7-7-7-9--9--9---|
 |-x-x-x-x-x-x-x-x-x-x--x--x---|
 |-6-6-7-7-9-9-9-9-9-11-11-11--| x2
 |-----------------------------|
 |-----------------------------|

The intro riff once more. (this one has various leads such as B on the 19th fret)

D|----0-0-0-0-0--0--0--0--0-----0---------0-0-0-0-0--0--0--0--0-----0-|
A|----5-5-7-7-9--9--9--9--9-----9---------5-5-7-7-9--9--9--9--9-----9-|
D|----x-x-x-x-x--x--x--x--x-----x---------x-x-x-x-x--x--x--x--x-----x-|
G|----7-7-9-9-11-11-11-11-11h12-11--------7-7-9-9-11-11-11-11-11h12-11|
B|--------------------------------------------------------------------|
E|--------------------------------------------------------------------|

 |-9-9--9--9--9--9--9--9--9--9--9--9--9-9--9--9--9--9--9--9--9--9--9--9-|
 |-9-9--9--9--9--9--9--9--9--9--9--9--9-9--9--9--9--9--9--9--9--9--9--9-|
 |-9-9--11-11-12-12-12-12-12-12-12-12-9-9-11-11-12-12-12-12-12-12-12-12-| x2
 |----------------------------------------------------------------------|
 |----------------------------------------------------------------------|
 |----------------------------------------------------------------------|

The songs over, man. Make me aware of any mistakes.
Suggest correction
comments
print report bad tab
1 comment total.
0 reply
daniern 10 wrote on February 3 2013, 09:10 pm

Nice tab, been waiting for it

guest
You may want to rate the tab now too:
select rating
Please do not post tabs as comments. Select "correction" instead!