Oops, an error
Loading. Please wait.

Sip O Poison bass

450 views 1 this week
1 commentread comment
1 2 3 4 5
2 more votes to show rating
add to favorites
×
Save as Personal and add changes to this tab that will be seen only by you. Learn more ›
×
You can save this tab as Personal to edit and correct it or add notes. All changes will be seen only by you. Learn more »
launch autoscroll
font size
0
reset
guitar tuner
edit
Autoscroll
slow
fast
+/-
esc
set tempo
stop
Author
Difficulty
-------------------------------------------------------------------------------
                             Sip O' Poison - Cherry Glazerr
-------------------------------------------------------------------------------
Tabbed by: joel94

Tuning: standard

Great song from Adult Swim Singles 2015

Verses
G|---7---------5---| |----7-------------|
D|-----5h7-5h7---7-| |------5h7---------|
A|-5---------------| |-5---------7-7-6~-|
E|-----------------| |------------------|

Chorus and Ending
G|-------------------------------|
D|-------------------------------|
A|-5----5----5----5--7-6---------|
E|-------------------------------|

Bridge part, in the song it sounds like it's played along with a synth.
G|---7-5-------5------7-5-----------|
D|-------5h7-7---7--------5---------|
A|-5----------------5--------7-7-6~-|
E|----------------------------------|

You can play in Drop D and play everything an octave
lower to switch things up.

h - hammer on
~ - let ring
Suggest correction
Creating personal tab
Creating personal tab
You can edit any tab online and save it as your Personal.

You can edit, replace or remove any tab part or add personal notes – all changes will be seen only by you.

Personal tabs can be accessed anytime from any device, even offline.
Learn more »
Give kudos to tab author, rate the tab!
1 2 3 4 5
comments
print report bad tab
1 comment total.
0 reply
heather.prettyman11 10 May 01, 2017 11:39 AM

Nice tab man I've been waiting for this one tbh

guest
You may want to rate the tab now too:
select rating
Wanna post a correction for this tab? Suggest correction