Oops, an error
Loading. Please wait.

Told You Id Be With The Guys tab

version 1
version 1

Whole song

3,787 views 45 this week
1 commentread comment
1 2 3 4 5
x 7
add to favorites
×
Save as Personal and add changes to this tab that will be seen only by you. Learn more ›
×
You can save this tab as Personal to edit and correct it or add notes. All changes will be seen only by you. Learn more »
launch autoscroll
font size
0
reset
how to read this tab
guitar tuner
edit
Autoscroll
slow
fast
+/-
esc
set tempo
stop
Cherry Glazerr - Told You I'd Be With The Guys
Level: Beginner

I've never really made any tabs here, but I got really bored and this is a cool song, so yeah. 
Please tell me what you think. Thanks.

[Intro] & Main Riff

E|------------------------------|------------------------------|
B|------------------------------|------------------------------|
G|------------------------------|------------------------------|
D|------------------------------|------------------------------|
A|--2---2/----14--14-14-14------|--2---2/----14--14-14-14------|
E|------------------------------|------------------------------|


E|------------------------------|------------------------------|
B|------------------------------|------------------------------|
G|------------------------------|------------------------------|
D|------------------------------|------------------------------|
A|------------------------------|------------------------------|
E|--2---2/----17--17-17-17------|--2---2/----17--17-17-17------|



E|------------------------------|------------------------------|
B|------------------------------|------------------------------|
G|------------------------------|----------14------------------|
D|------------------------------|-------------14----14---------|
A|--2---2/----14--14-14-14------|--2---2/--------14------------|
E|------------------------------|------------------------------|\
                                                                  2x before she starts to sing
E|------------------------------|------------------------------|/
B|------------------------------|------------------------------|
G|------------------------------|------------------------------|
D|------------------------------|------------------------------|
A|------------------------------|------------------------------|
E|--2---2/----17--17-17-17------|--2---2/----17--17-17-17------|



E|------------------------------|------------------------------|
B|------------------------------|------------------------------|
G|------------------------------|------------------------------|
D|------------------------------|------------------------------| 
A|--2---2/----14--14-14-14------|--2---2/----x-14--------------| 
E|------------------------------|------------------------------| 

E|------------------------------|------------------------------|
B|------------------------------|------------------------------|
G|------------------------------|------------------------------|
D|------------------------------|------------------------------| similar stuff x can be 16
A|------------------------------|------------------------------|
E|--2---2/----17--17-17-17------|--2---2/----x-17--------------|


Now for the verse (?) the chord progression is

[Verse]
               Bm
Nobody has my back
                    F#m
Girl, I should've stayed
            E
Maybe another day
               F#
When I'm wide awake

        Bm
I told you
                                       F#m
I told you, I told you I'd be with the guys
                 E
But I know better now 
                    F#
than to be with the guys

Back to the main riff - there are slight variations but you'll figure it out 

E|------------------------------|------------------------------|
B|------------------------------|------------------------------|
G|------------------------------|----------14------------------|
D|------------------------------|-------------14----14---------|
A|--2---2/----14--14-14-14------|--2---2/--------14------------|
E|------------------------------|------------------------------|
                                                                
E|------------------------------|------------------------------|
B|------------------------------|------------------------------|
G|------------------------------|------------------------------|
D|------------------------------|------------------------------|
A|------------------------------|------------------------------|
E|--2---2/----17--17-17-17------|--2---2/----17--17-17-17------|

[Verse]
                     Bm
I guess that was my fault
                   F#m
Girl, I should've stayed
            E
Maybe another day
               F#
When I'm wide awake

        Bm
I told you
                                       F#m
I told you, I told you I'd be with the guys
                 E
But I know better now 
                    F#
than to be with the guys


Third Verse is a little different:
[Verse 3]
                   
E|----------------------------|---------------|
B|----------------------------|---------------|
G|----------------------------|---------------|
D|----12-------------16-------|-(x4)----------| 
A|----12-(x16)-------16-(x16)-|--------2---2--|
E|----10-------------14-------|---------------|



************************************

| /  Slide up
| x  Dead note

************************************

            
            
Suggest correction
Creating personal tab
Creating personal tab
You can edit any tab online and save it as your Personal.

You can edit, replace or remove any tab part or add personal notes – all changes will be seen only by you.

Personal tabs can be accessed anytime from any device, even offline.
Learn more »
comments
print report bad tab
1 comment total.
0 reply
sylvia_280 60 Dec 07, 2016 09:44 PM

Awesome! Thanks for posting. All that's missing is that guitar solo... :)

guest
You may want to rate the tab now too:
select rating
Wanna post a correction for this tab? Suggest correction