Oops, an error
Loading. Please wait.

Got To Be Real Bass Tab

version 2
version 2

Whole song

Interactive

9,868 views 27 this week
1 commentread comment
1 2 3 4 5
accurate
x 8
add to favorites
launch autoscroll
font size
0
reset
guitar tuner
Autoscroll
slow
fast
+/-
esc
set tempo
stop
Help us to improve Ultimate-Guitar.com Take our survey!
×
Contributor
Most of the credit should go to Soch Hean for transcribing most of this, all I've 
done is add the tab for that funky little riff at the very beginning of the song. Enjoy!


Intro:
|--------10--------10---------10-------|
|---10-12-----10-12------10-12---------|
|-12--------12---------12--------------|
|--------------------------------10-10-|


Main Bassline:                  
|------------------------------|
|-----------3h5----------------|
|-6---6-5----------------------|
|----------------3--3--3---1---| (x2)

|--------------------------------|
|-----------3h5------------------|
|-6---6-5------------------3--5--|
|----------------3--3--3---------|

|------------------------------|
|-----------3h5----------------|
|-6---6-5----------------------|
|----------------3--3--3---1---|

|--------------------------------|
|-----------3h5------------------|
|-6---6-5------------------3--5--|
|----------------3--3--3---------|

|-----------------------------|
|-----------------------------|
|-6---6-5---5-----------------|
|---------------3--3--3---1---|

|--------------------------------|
|-----------3h5------------------|
|-6---6-5------------------3--5--|
|----------------3--3--3---------| (x3)

|------------------------------|
|-----------3h5----------------|
|-6---6-5----------------------|
|----------------3--3--3---1---|


(Ooh, your love's for real now...) (0:46)
|-----------------------------------------------------|
|-----------------------------------------------------|
|-3-3--1-3---1-3---1-3-3--1-3-3-3--1-3---1-3--1-3-----|
|-----------------------------------------------------|

(You know, that your love is my love...) (0:54)
|------------------------------------------------------|
|------------------------------------------------------|
|-5---5-5---5-6--6-6--6s8------------5-5-5--5-5--------|
|---------------------------6--6-6---------------------|
comments
print report bad tab
1 comment total.
0 reply
bassbrother3 13 wrote on January 4 2016, 07:30 pm

There's a key change in the middle of the song...
basically to me it sounds like the same pattern, just go up on the A string to 8 to 7, and repeat the same pattern you were just playing. IE:

G|------------------------|
D|---------5h7------------|
A|-8---8-7----------------|
E|-------------5-5-5----3-|
and keep repeating. also pop those hammer-ons and give them some spice!

I want to post or [tab]
guest
You may want to rate the tab now too:
select rating
Please do not post tabs as comments. Select "correction" instead!