Oops, an error
Loading. Please wait.

God Damn Youre Beautiful Tab

13,722 views 30 this week
no commentswrite comment
1 2 3 4 5
excellent!
x 5
add to favorites
launch autoscroll
font size
0
reset
how to read this tab
guitar tuner
Autoscroll
slow
fast
+/-
esc
set tempo
stop
Help us to improve Ultimate-Guitar.com Take our survey!
×
Difficulty
Capo
intermediate
1st fret
Capo on 1st Fret

Intro

E |----------3------3-|
B |-------3--3--1-0-3-|
G |0-2----------------|
D |-----2-2--2--------|
A |-----2-2--3------2-|
E |-----------------3-|

E |----------3--3-3-3-2-|
B |-------3--3----1---3-|
G |0-2----------------2-|
D |-----2-2--2----------|
A |-----2-2--3----------|
E |-------------3-3-3---|

E |----3-------2-3------|
B |--1-3-0-----3-3------|
G |--------2---2--------|
D |2-2-------2----------|
A |2-3-2-----2---2------|
E |----3---------3------|

Verse:
       Em7          Cadd9    G
On the days I can't see your eyes
Em7     Cadd9         G    D
I don't even want to, open mine
       Em7          Cadd9     G
On the days I can't see your smile
     Em7        Cadd9   G        D
Well I'd rather sit and wait the while
         Em7        Cadd9      G
For the days I know you'll be near
         Em7        Cadd9 G          D
'Cause I day without you just isn't fair
        Em7         Cadd9    G
See the days I can hear your voice
Em7         D       G
I'm left without a choice


Pre Chorus:
            Em7         D
Plus I get weak in the knees
                Cadd9   G
Fall head over heels baby
     Em7         D    Cadd9  G
And every other cheesy cliche
         Em7         D
Yes I'm swept off my feet
       Cadd9        G
Oh my heart skips a beat
             Em7         D            G
But there's really only one thing to say:


Chorus:
                 Cadd9
God Damn you're beautiful
    D G       D    Em7   D
To me, you're everything, 
             Cadd9    D        G D  Em7 D Cadd9 D
Yeah that's beautiful, yes to me.

E |----------3------3-|
B |-------3--3--1-0-3-|
G |0-2----------------|
D |-----2-2--2--------|
A |-----2-2--3------2-|
E |-----------------3-|

E |-------2--3-|
B |0------3--3-|
G |--2----2----|
D |-----2------|
A |-----2----2-|
E |----------3-|

Verse:
        Em7          Cadd9  G
I can't find the words to explain
Em7               Cadd9   G     D       
Just how much you got me going insane
          Em7        Cadd9             G
When you speak to me sometimes you'll find
      Em7         Cadd9     G    D
Oh, I stutter my words and say nevermind
       Em7           Cadd9     G
'Cause even when you just walk by
        Em7   Cadd9    Cadd9    D
Well I look around to seem occupied
            Em7      Cadd9       G
'Cause I'm trying so hard to hide
      Em7           D          G
Yeah, all of these feelings inside


Pre Chorus:
            Em7         D
Cause I get weak in the knees
                Cadd9   G
Fall head over heels baby
     Em7         D    Cadd9  G
And every other cheesy cliche
         Em7         D
Yes I'm swept off my feet
       Cadd9        G
Oh my heart skips a beat
             Em7         D            G
But there's really only one thing to say:


Chorus:
                 Cadd9
God Damn you're beautiful
    D G       D    Em7   D
To me, you're everything, 
             G       D        G  D  Em7 D Cadd9 D
Yeah that's beautiful, yes to me,
Yes to me

Ending
            Cadd9    D
Yeah you're beautiful
            Cadd9    D
Yeah you're beautiful
         Cadd9           D
God Damn you're beautiful

To me.

To me.

Ending:

E |----------3------3-|
B |-------3--3--1-0-3-|
G |0-2----------------|
D |-----2-2--2--------|
A |-----2-2--3------2-|
E |-----------------3-|

E |-------2------1---|
B |0----3-3----2---2-|
G |--2----2--0-------|
D |-----2------------|
A |-----2------------|
E |------------------|
Suggest correction
comments
print report bad tab
guest
You may want to rate the tab now too:
select rating
Please do not post tabs as comments. Select "correction" instead!