Oops, an error
Loading. Please wait.

Tonight I Know Chords

6,682 views 9 this week
2 commentsread comments
1 2 3 4 5
excellent!
x 8
add to favorites
launch autoscroll
font size
0
reset
transpose
0
reset
display chords
guitar tuner
Autoscroll
slow
fast
+/-
esc
set tempo
stop
Help us to improve Ultimate-Guitar.com Take our survey!
×
Difficulty
intermediate
Listen to the song for the beat. I'm sorry if it's not accurate, or that it's on guitar 
and not on piano. But I did include the guitar parts as well... almost. Cheers, Ryanlol21.

{ Intro }
e|8---8--8-7-8-10-8---8-8-7-8-10---12---12-12-12-13-12-10---10-10-10-12-10--|
B|-------------------------------8----------------------------------------10|
G|--------------------------------------------------------------------------|
D|--------------------------------------------------------------------------|
A|--------------------------------------------------------------------------|
E|--------------------------------------------------------------------------|

e|-------7-8-10-8---8-8-7-8-10---12-12-12-13-12-10~|
B|10--10-----------------------8-------------------|
G|-------------------------------------------------|
D|-------------------------------------------------|
A|-------------------------------------------------|
E|-------------------------------------------------|

Dm                  F                             Am  C
I was scared and unaware of what your touch might do
Dm                            F                             Am  C
I tried to fight it, couldn't hide it, I was falling for you
Dm                             F
But I lose control and I don't know if I can do this,
       C
'Cause everytime I'm near you,
      G
Well, I just feel so helpless,
Dm                           F                     Am
I try to leave but something brings me closer to you.

Dm                      G
I fall in love a little more each day,
Am
'Cause I don't have the strength to stay away so,

  Dm        F     C         G
Tonight I know, Tonight I know,
  Dm        F
Tonight I know,
                   C                     G
I've never been so sure about a single thing before,
  Dm        F (hold)
Tonight I know

Tonight I know.

{ Interlude - Am F C G }
e|8-------7-8-10-8-------7-8-10---12---12----12-13-12-10--10--10-12-10\-----|
B|------------------------------8-------------------------------------------|
G|--------------------------------------------------------------------------|
D|--------------------------------------------------------------------------|
A|--------------------------------------------------------------------------|
E|--------------------------------------------------------------------------|

{ Verse 2 - This is in the background. }
e|-----------------------------|
B|------3----------------------|
G|----5--------5------5------5-|
D|-----------7------7------5---|
A|-----------------------------|
E|-----------------------------|

Dm                          F                              Am    C
And I'll be honest, I can't promise that this love won't change.
Dm                                F                       Am   C
'Cause I can't ignore, I love you more, with every single day.
Dm                               F
And you should know, that I wont go, I'm here forever,
C                                G
As long as time allows us, We'll always be together.
Dm                      F                Am
You're the one and only love I've ever known.

Dm                      G
I fall in love a little more each day,
Am
And I don't have the strength to stay away so,

  Dm        F     C         G
Tonight I know, Tonight I know,
  Dm        F
Tonight I know,
                   C                     G
I've never been so sure about a single thing before,
  Dm        F (hold)
Tonight I know

Tonight I know.

{ Interlude 2 - Am F C G Am F G }
e|8-------7-8-10-8-------7-8-10---12---12----12-13-12-10--10--10-12--10-----|
B|------------------------------8-------------------------------------------|
G|--------------------------------------------------------------------------|
D|--------------------------------------------------------------------------|
A|--------------------------------------------------------------------------|
E|--------------------------------------------------------------------------|

e|-------7-8-10-8-------7-8-10-------------------------------13b15----|
B|----10--------------------------12-12-12-12-12-12-13-13-13----------|
G|--------------------------------------------------------------------|
D|--------------------------------------------------------------------|
A|--------------------------------------------------------------------|
E|--------------------------------------------------------------------|

  Dm        F     C         G
Tonight I know, Tonight I know,
  Dm        F
Tonight I know,
                   C                     G
I've never been so sure about a single thing before,
  Dm        F     C         G
Tonight I know, Tonight I know,
  Dm        F
Tonight I know,
                   C                     G
I've never been so sure about a single thing before,
  Dm        F (hold)
Tonight I know

Tonight I know.

{ Outro - Piano }
e|8-------7-8-10-8-------7-8-10---12---12----12-13-12-10--10--10-12--10-----|
B|------------------------------8-------------------------------------------|
G|--------------------------------------------------------------------------|
D|--------------------------------------------------------------------------|
A|--------------------------------------------------------------------------|
E|--------------------------------------------------------------------------|

e|-------7-8-10-8---8-8-7-8-10---12-12-12-13-12-10--10--10-12--10-----|
B|----10-----------------------8--------------------------------------|
G|--------------------------------------------------------------------|
D|--------------------------------------------------------------------|
A|--------------------------------------------------------------------|
E|--------------------------------------------------------------------|

{ Background }
e|-----------------------------------------------------------|
B|-----------------------------------------------------------|
G|5---4---5-------5\0---4-2-0-2---4---5-------5\0----4-2-0---|
D|-----------------------------------------------------------|
A|-----------------------------------------------------------|
E|-----------------------------------------------------------|

End with Am
----------------------------------------------------------------------------
Suggest correction
What's this?
You can suggest a correction to this tab. Community and Mods will review your correction and vote to approve or reject it.
comments
print report bad tab
2 comments total.
0 reply
vonviccayas 248 wrote on June 15 2015, 02:23 pm

Change the C on the verses to G

0 reply
vonviccayas 248 wrote on June 15 2015, 02:25 pm

For Ukulele, try playing the Am as

A|---3---
E|---5---
C|---4---
G|---5---

So like an Abm but a half step up

guest
You may want to rate the tab now too:
select rating
Please do not post tabs as comments. Select "correction" instead!