Oops, an error
Loading. Please wait.

Emily Tab

version 1
version 1

Whole song

Interactive

2,230 views 3 this week
no commentswrite comment
1 2 3 4 5
please rate
add to favorites
launch autoscroll
font size
0
reset
how to read this tab
guitar tuner
Autoscroll
slow
fast
+/-
esc
set tempo
stop
Help us to improve Ultimate-Guitar.com Take our survey!
×
Author
Difficulty
Haeron 36
intermediate
Gtr I (E A D G B E) - 'Gtr. 1'


  Q=120
 3/4
  Gtr I
      |-3-| |-3-|   |-3-| |-3-| |-3-|   |-3-| |-3-| |-3-|
  E E E E E E E E   E E E E E E E E E   E E E E E E E E E   E E H
|-----------------|---------------3-5-|-7-5-3-------------|-0-7-3----|
|-----------------|---------3-5-6-----|-------------------|-0---0----|
|-----------------|---2-4-5-----------|-------4-2-0-------|-5---5----|
|-------------2-3-|-5-----------------|-------------1-----|-5---5----|
|-------2-3-5-----|-------------------|---------------2-0-|----------|
|---3-5-----------|-------------------|-------------------|----------|


  E E Q  E E   E E Q  Q    E E Q  E E   Q  Q  E E   E Q.   Q    E Q.   Q
|-0-7-3------|---7----0--|-3----------|---------0-|-5------3--|-----------|
|-0---0------|-5---8-----|--------5-3-|-1-----3---|---3----3--|-1---------|
|-5---5------|-5---------|---4--------|----0------|---3----3--|---2----2--|
|-5---5----0-|-----------|---3--------|----2------|---3----2--|---3----3--|
|-0----------|-----------|------------|-3---------|-----------|-----------|
|------------|-----------|-3----------|-----------|-3---------|-1---------|


  E Q.   Q    E Q.   Q    E Q.   Q    E Q.   Q    Q  Q  Q    Q  Q  E E
|-----------|-0---------|-----------|-----------|----------|---------0-|
|---1----3--|-----------|-5---------|-5---------|-------0--|-1-----3---|
|---1----1--|---2----2--|---2----2--|---2----2--|----2--1--|----0------|
|---4----2--|---2----2--|---2----2--|---5----5--|----0--0--|----2------|
|-----------|-0---------|---4----4--|-2---------|----2-----|-3---------|
|-0---------|-----------|-2---------|-----------|-0--------|-----------|


   E  E Q  E  E   E Q.   Q    E E H      E E H      E E Q  E E   E E Q  Q
|-10-------8----|-----------|----------|-0-7-3----|-0-7-3------|---7----0--|
|------------10-|-3---------|---4------|-0---0----|-0---0------|-5---8-----|
|-----9---------|---3----3--|---4------|-5---5----|-5---5------|-5---------|
|----10---------|---4----4--|---3------|-5---5----|-5---5----0-|-----------|
|-----9---------|-----------|----------|----------|-0----------|-----------|
|---------------|-4---------|-3--------|----------|------------|-----------|


  E Q.   Q    Q  Q  Q     Q   Q  Q    E Q.   Q    Q  E E E E   Q.   E E E
|-3------1--|-0--1--3--|-12--10--8--|-5---------|----1-0-4-7-|-8------7-5-|
|---0----0--|-0--0-----|------9-----|---5----5--|----3-------|------5-5---|
|--------1--|-0--0-----|------9-----|---5----5--|----1-------|------5-5---|
|---3----0--|----------|------8-----|---5----5--|------------|------5-5---|
|-----------|-3--------|------------|-8---------|------------|-0----------|
|-3---------|----------|--8---------|-----------|-0----------|------------|


  E E Q  E E   E E Q  Q    Q  Q  E E   E E Q  Q    Q  Q  Q    E E Q  Q
|------------|---5s7-----|----5------|---3s5-----|----3-----|-----3-----|
|-8------7---|-8---8-----|-------8s7-|-7---7-----|-------7--|-5-7----5--|
|---8--------|-7---7-----|----6------|-5---5-----|----4-----|-4------4--|
|------------|-----------|----5------|-----------|----3-----|-----------|
|----------7-|--------7--|-0-------5-|--------5--|----------|-3---------|
|-7------7---|-----------|-----------|-----------|-3--------|-----------|


  H    E E   E E Q  E E   E Q.   Q    E E Q  E E   H    E E   E E Q.   E
|-0----5-7-|-8------7-5-|-----------|-0-7-3------|-0--------|---7-3------|
|-0--------|---7--------|-8------7--|-0---0--0---|-0--------|-5----------|
|-5--------|---5--------|---7-------|-5---5--5---|-6--------|-5----------|
|-5--------|------------|---6-------|-5---5--5---|-5------5-|------------|
|-0--------|-5----------|-----------|----------0-|------0---|------------|
|----------|------------|-6---------|------------|----------|----------3-|


  E E Q.   E   E  E Q  E E   H.
|---7--------|---10-7--5s7-|-7-----*|
|-5---8------|-8----8--7s8-|-8-----*|
|-4----------|-7-----------|-7-----*|
|-3----------|-7-----------|-7-----*|
|----------7-|-------------|-7-----*|
|------------|-------------|-8-----*|




--------------------------------------------------------------------------------


Duration Legend
---------------
W - whole; H - half; Q - quarter; E - 8th; S - 16th; T - 32nd; X - 64th; a - acciaccatura
+ - note tied to previous; . - note dotted; .. - note double dotted
Uncapitalized letters represent notes that are staccato (1/2 duration)
Irregular groupings are notated above the duration line
Duration letters will always appear directly above the note/fret number it represents the
duration for.  Duration letters with no fret number below them represent rests.  Multi-
bar rests are notated in the form Wxn, where n is the number of bars to rest for.  Low
melody durations appear below the staff

Tablature Legend
----------------
 h   - hammer-on
 p   - pull-off
 b   - bend
 pb  - pre-bend
 r   - bend release (if no number after the r, then release immediately)
 /\  - slide into or out of (from/to "nowhere")
 s   - legato slide
 S   - shift slide
 - natural harmonic
[n]  - artificial harmonic
n(n) - tapped harmonic
 ~   - vibrato
 tr  - trill
 T   - tap
 TP  - trem. picking
 PM  - palm muting
\n/  - tremolo bar dip; n = amount to dip
 \n  - tremolo bar down
 n/  - tremolo bar up
/n\  - tremolo bar inverted dip
 =   - hold bend; also acts as connecting device for hammers/pulls
 <> - volume swell (louder/softer)
 x   - on rhythm slash represents muted slash
 o   - on rhythm slash represents single note slash

Misc Legend
-----------
 |  - bar
||  - double bar
||o - repeat start
o|| - repeat end
*|  - double bar (ending)
 :  - bar (freetime)
 $  - Segno
 &  - Coda
Tempo markers -  = BPM(8/16=s8/s16), where s8 = swing 8ths, s16 = swing 16ths

Suggest correction
What's this?
You can suggest a correction to this tab. Community and Mods will review your correction and vote to approve or reject it.
comments
We did not receive enough feedback on this tab! Please rate:
print report bad tab
1 2 3 4 5
guest
You may want to rate the tab now too:
select rating
Please do not post tabs as comments. Select "correction" instead!