Oops, an error
Loading. Please wait.

Freight Train Tab

version 2
version 2

Whole song

Interactive

3,101 views 1 this week
no commentswrite comment
1 2 3 4 5
please rate
add to favorites
launch autoscroll
font size
0
reset
how to read this tab
guitar tuner
Tab Pro tools
  • play this tab
  • loop segment
  • change instrument
  • show fretboard
  • metronome
×
Best way to learn
"Freight Train"
Autoscroll
slow
fast
+/-
esc
set tempo
stop
Contributor
this was recorded back in 1964 from the GUITAR COUNTRY album
(sorry about the gap in the tab)

e|-----------8-----------------------------------8---------------------------|
B|-----------------10-------8------------------------11----------------------|
G|-----------------------------10---------9----------------------------------|
D|--------------10------10-----10----10------8-------8-----8-----8-----------|
A|------5-7--8--------------8------------10-------------10-------------------|
E|---8--------------8--------------8-------------8-----------8---------------|

e|-10---------------------------------8--------------------------------------|
B|-------11----10---8--------------------10-----------------10------11----10-|
G|----------------------------10---------------------------------------------|
D|-----8----8-------8-----8-------10-----10------10------------7-------7-----|
A|-10----------10-------------8---------------8------10--11--7-------------7-|
E|-------8-------------8--------------8---------------------------9----------|

e|-------------------------3-----1-----0-------------5----5--3---------------|
B|--------8------6------------------------3----------------------------------|
G|---------------------------------------------5-----------------------------|
D|-7---------7------7---------5-----3--------3----5-----5----5---------------|
A|---------------5-----3---------1-----3-------3------3---3-------3----------|
E|----9----------------------------------------------------------------------|

e|--------------------------8----------------------------------8-------------|
B|-6-------------------------------10-----8-----------------------11---------|
G|--------------------------------------------10----------9------------------|
D|----7------7----------------10-------10-----10-----10-----8-----8-------8--|
A|-8-----------8------5--7--8-------------8--------------10-----------10-----|
E|-------8--------8-----------------8-------------8------------8-------------|

e|---------10---------------------------------8------------------------------|
B|-----------------11-----10--8------------------10---------------10---------|
G|-------------------------------------10------------------------------------|
D|-----8-------8-------8------8----8------10-----10----10----------------7---|
A|---------10-------------10-----------8-------------8----10-11----7---------|
E|-8---------------8-------------8------------8------------------------------|

e|-------------------------------------------3------1------0----------5----5-|
B|----11-----------------8--------6--------------------------3---------------|
G|------------10--------------------------------------------------5----------|
D|--------7------7----------7--------7----------5-------3------3----5----5---|
A|------------7-------------------5-----3------------1-----3------3----3---3-|
E|-9------------------9------------------------------------------------------|

e|-3------------5-------|
B|--------------6-------|then the piano solo comes in at this part
G|---------x----5-------|
D|-5-------x----7-------|
A|----3---------8-------|
E|----------------------|

e|------------------------------------------------------(5)s12--12--13--12---|
B|-8--5--------------8------9B--6----------------8------(5)s12--13--13--13---|
G|--------7--5----------10---------9--7------------9-------------------------|
D|---------------9-------------------------10--------------------------------|
A|---------------------------------------------------------------------------|
E|---------------------------------------------------------------------------|

e|-10----8--10---8-------------10s12---12s10----8-----|
B|------10------10---12-10--8-------------------------|
G|-------------------12-10--9--10s12---12s10----9-----|BASS SOLO

D|----------------------------------------------------|
A|----------------------------------------------------|
E|----------------------------------------------------|


e|-----0-------1-----0----------------------------------------------------0--|
B|-----------------------------3--------------3-----1-----0------------------|
G|------------------------------------5----------------------2----0----------|
D|-----2---------2------2---------2------7-------5------3------------0-------|
A|---------2---------------2-----------------------------------0----------2--|
E|-0------------------0---------------5-----3-------1-----3-------3----------|

e|-----0--------------0---------|second piano solo
B|---------3----------1---------|
G|--------------------0---------|
D|--0------0----0-----2---------|
A|------------2-------3---------|
E|-----3------------------------|

e|-13----------------12-10--13--10-----------------13--------9---9---9-------|
B|-13--13-11-10---8--13-11--14B-11----13--11-------13--13---10--11--10--11---|
G|-----14-12-10---9-------------------14--12--14-------14---------------12---|
D|--------------------------------------------15-----------------------------|
A|---------------------------------------------------------------------------|
E|---------------------------------------------------------------------------|

e|---------10---------------------------------------------|
B|-10------11---13--11--10----10s13---11s13s11----10------|
G|-10-12--------14--12--10----10s13---12s14s12----10------|
D|------------------------------------------------10------|
A|--------------------------------------------------------|
E|--------------------------------------------------------|
comments
We did not receive enough feedback on this tab! Please rate:
print report bad tab
1 2 3 4 5
I want to post or [tab]
guest
You may want to rate the tab now too:
select rating
Please do not post tabs as comments. Select "correction" instead!