Oops, an error
Loading. Please wait.

Mr Sandman Tab

version 1
version 1

Whole song

Interactive

71,426 views 258 this week
no commentswrite comment
1 2 3 4 5
x 35
add to favorites
launch autoscroll
font size
0
reset
how to read this tab
guitar tuner
Autoscroll
slow
fast
+/-
esc
set tempo
stop
Help us to improve Ultimate-Guitar.com Take our survey!
×
Author
Difficulty
advanced
MR. SANDMAN
                           As recorded by Chet Atkins


Gtr I (E A D G B E) - 'Guitar'

   Q=216
  4/4
   Gtr I
   Q  Q  Q  E E   Q  Q  Q  Q     W               H      Q   Q
e|--------------|----------4--|--2-------------|---------------|
B|--------------|-------5-----|-(5)--5---------|--------7--10--|
G|--------------|----6--------|-(6)-----6------|----7----------|
D|-------4--6---|-7-----------|-(7)--------7\--|-9-------------|
A|----7---------|-0-----------|-(0)------------|---------------|
E|--------------|-------------|----------------|---------------|
                 W             +Q   Q  Q  Q     Q  H.


   Q.   E Q.   E   Q  Q  Q  Q     W               H      Q   Q
e|---------------|----------4--|--2-------------|----------------|
B|-9-------------|-------5-----|-(5)--5---------|--------7--10---|
G|-7-------------|----6--------|-(6)-----6------|----7-----------|
D|-9-------------|-7-----------|-(7)--------7\--|-9--------------|
A|---------------|-0-----------|-(0)------------|----------------|
E|--------0------|-------------|----------------|----------------|
                  W             +Q   Q  Q  Q     Q  H.


   Q.     E Q   E E   Q   E E +Q   E E   Q   E E Q   E E   Q   E E Q   Q
e|----------0-------|-4----------------|-----------------|-4---4-------4----|
B|-9------------7---|-------7-(7)------|-----------------|-7-------7--------|
G|-7----------------|-----6--------6---|-----6-------6---|-5----------------|
D|-9----------------|-----7--------7---|-----7-------7---|-----4-------4----|
A|------------------|-0----------------|-0---------------|---------6--------|
E|-----0------------|----------0-------|---------0-------|-4----------------|
  Q   Q.     E Q     Q.    E  Q.    E   Q.    E Q.    E   Q.    E Q.    E


    Q   E E Q  E E   Q   E E Q   E E   Q   E E +Q   E E   Q  E E Q   Q
e|-(4)-------------|-----5---5---4---|-5-----4-(4)------|-----------------|
B|-----------------|-----4-------4---|------------------|-3--3---2---3----|
G|-----------------|-----4-------4---|-----4--------4---|-3--3---3---3----|
D|-(4)-------------|-----3-------3---|-----3--------3---|----2-------2----|
A|-------------3---|-4---------------|-4----------------|--------4--------|
E|--4---4---6------|---------4-------|----------4-------|-2---------------|
                    Q.    E Q.    E   Q.    E  Q.    E   Q  E E Q.    E


   +Q   E E Q  E E   Q   E E Q   E E   Q   E E +Q   E E   Q   E E Q   Q
e|-----------------|-----4---4---2---|-4-----2-(2)------|------------------|
B|-(3)-------------|-----2-------2---|------------------|-2---2---0---2----|
G|-(3)-------------|-----2-------2---|-----2--------2---|-1---1---1---1----|
D|-(2)-------------|-----1-------1---|-----1--------1---|-----0-------0----|
A|-------------1---|-2---------------|-2----------------|---------2--------|
E|------2---4------|---------2-------|----------2-------|-0----------------|
                    Q.    E Q.    E   Q.    E  Q.    E   Q.    E Q.    E


   +Q   Q   Q  E E   Q   E E Q   E E   Q   E E +Q   E E   Q   E E Q   E E
e|------0----------|-----7---7---5---|-7-----5-(5)------|-8-------8--------|
B|-(2)-------------|-----------------|------------------|-8-------8--------|
G|-(1)-------------|-----------------|-----6--------6---|-8-------8--------|
D|-(0)-------------|-----7-------7---|-----7--------7---|-----7-------7----|
A|-----------------|-0---------------|-0----------------|-8----------------|
E|--0-------2--4---|---------0-------|----------0-------|---------8--------|
   Q.    E H        Q.    E Q.    E   Q.    E  Q.    E   Q.    E Q.    E


   Q   Q   +Q   E E   Q   E E +Q   E E   Q   E E Q   E E   Q   E E Q  Q
e|-9---7---(7)------|-4----------------|-----------------|-4---4------4---|
B|-7---7---(7)------|-------7-(7)------|-----------------|-7-------7------|
G|-7---7---(7)------|-----6--------6---|-----6-------6---|-5--------------|
D|-----6---(6)--6---|-----7--------7---|-----7-------7---|-----4------4---|
A|-7----------------|-0----------------|-0---------------|---------6------|
E|----------0-------|----------0-------|---------0-------|-4--------------|
  Q.    E  Q.    E   Q.    E  Q.    E   Q.    E Q.    E   Q.    E Q  Q


   +Q   E E Q  E E   Q   E E Q   E E   Q   E E +Q   E E   Q   E E Q   Q
e|-(4)-------------|-----5---5---4---|-5-----4-(4)------|------------------|
B|-----------------|-----4-------4---|------------------|-3---3---2---3----|
G|-----------------|-----4-------4---|-----4--------4---|-3---3---3---3----|
D|-(4)-------------|-----3-------3---|-----3--------3---|-----2-------2----|
A|-------------3---|-4---------------|-4----------------|---------4--------|
E|------4---6------|---------4-------|----------4-------|-2----------------|
                    Q.    E Q.    E   Q.    E  Q.    E   Q.    E Q.    E


   +Q   E E Q  E E   Q    E  E Q   Q     +Q   E E Q   E E   E  E E E +Q   E E
e|-----------------|---------------2---|-(2)--5---5---5---|-7------7-(7)-------|
B|-(3)-------------|-----------3-------|------3-------3---|----6---------------|
G|-(3)--3------3---|-4---(4)-----------|------2-------2---|--------------------|
D|-(2)--2------2---|------4--------4---|-(4)--4-------4---|------7--------7----|
A|----------4------|-2-----------------|--2---------------|-5------------------|
E|--2--------------|-----------2-------|----------2-------|-----------5--------|
   Q.    E Q  E E   Q.      E Q.    E    Q.    E Q.    E   Q.     E  Q.    E


   Q   E E Q  E E   Q   E E Q   E E   Q   E E Q   E E   Q   Q   +Q   E E
e|---------5--7---|-9-------9-------|-9-------9-------|-7---5---(5)-------|
B|----------------|-9-------9-------|-9-------9-------|-5---5---(5)-------|
G|----------------|-8-------8-------|-7-------7-------|-6---6---(6)--6----|
D|-----7----------|-----7-------7---|-----6-------6---|-----7--------7----|
A|-5--------------|---------9-------|-7---------------|-------------------|
E|----------------|-7---------------|---------7-------|-5--------5--------|
  Q.    E H        Q.    E Q.    E   Q.    E Q.    E   Q.    E  Q.    E


   Q   Q   Q   Q      Q   Q   Q  Q       W                    H        Q   Q
e|----------------||-------------9--||---7---------------||---0-----------10--|
B|----------------||---------10-----||-(10)--10----------||-----------12------|
G|----------------||-----11---------||-(11)------11------||-------12----------|
D|-----7---9--11--||-12-------------||-(12)----------12--||-(12)--------------|
A|----------------||----------------||-------------------||-------------------|
E|-5--------------||-10-------------||-(10)--------------||-------------------|
  Q.    E H          W                 +Q    Q   Q   Q       Q    Q   H


    Q.   E Q.   E     H       Q  Q       W                   +Q    Q   Q   Q
e|--9-------------||-------------9--||---7---------------||---0-----------10--|
B|-12-------------||---------10-----||-(10)--10----------||-----------12------|
G|-12-------------||-----11---------||-(11)------11------||-(11)--12----------|
D|----------------||-12-------------||-(12)----------12--||-(12)--------------|
A|---------0------||----------------||-------------------||-------------------|
E|----------------||-10-------------||-(10)--------------||-------------------|
                     Q   Q   H         +Q    Q   Q   Q       H.           Q


    Q.   E Q  E E    Q   E E +Q   E E    Q   E E Q   E E    Q   E E E  E  E  E
e|-12-------------||-2----------------||-----------------||-----2---------------|
B|-12------3--5---||-------5-(5)------||-----------------||-----2------5-(5)----|
G|-11-------------||-----4--------4---||-----4-------4---||-----3---------------|
D|-10-------------||-----5--------5---||-----5-------5---||-----4---------4-----|
A|----------------||------------------||-----------------||---------------------|
E|----------------||-3--------3-------||-3-------3-------||-2-------2-----------|
                    Q.    E  Q.    E    Q.    E Q.    E    Q.    E Q.       E


   Q  E E Q  E E    Q   E E Q   E E    Q   E E +Q   E E    Q   E E Q   Q
e|-2-------------||-----3---3---2---||-3-----2-(2)------||------------------|
B|-2-------------||-----2-------2---||-2----------------||-1---1---0---1----|
G|-3-------------||-----2-------2---||-2---2--------2---||-1---1---1---1----|
D|-4-------------||-----1-------1---||-----1--------1---||-----0-------0----|
A|-----------1---||-2---------------||-2----------------||---------2--------|
E|-2--2---4------||---------2-------||----------2-------||-0----------------|
                   Q.    E Q.    E    Q.    E  Q.    E    Q.    E Q.    E


   +E  E E E Q  E E    Q   E E E  E  E  E
e|------------------||--------------------||
B|-(1)--------------||-----7------5-(5)---||
G|-(1)--------------||-----6------6-(6)---||
D|-(0)--------------||-----5---------5----||
A|------------------||-0------------------||
E|-------0---2--4---||---------0----------||
                      Q.    E Q.       E


   Q   E E +Q   E E    Q   E E E  E  E  E
e|------------------||---------------------|
B|-7-----5-(5)------||-----3---------------|
G|-6-----6-(6)------||------------5-(5)----|
D|-----5--------5---||-----4---------4-----|
A|-0----------------||-5-------------------|
E|----------0-------||---------5-----------|
  Q.    E  Q.    E    Q.    E Q.       E


   Q   E E  Q.   E    Q   E E Q   E E    Q   E E +Q   E E    Q   E E Q   E E
e|-----------------||-----5---5---3---||-5-----3-(3)------||-6-------6--------|
B|-3-----5-(5)-----||-----------------||------------------||-6-------6--------|
G|-5-----5-(5)-----||-----------------||-----4--------4---||-6-------6--------|
D|-----4----4------||-----5-------5---||-----5--------5---||-----5-------5----|
A|-5--------5------||-----------------||------------------||-6----------------|
E|-----------------||-3-------3-------||-3--------3-------||---------6--------|
  Q.    E  Q.   E    Q.    E Q.    E    Q.    E  Q.    E    Q.    E Q.    E


   Q   Q   +Q   Q      E E E E E E Q     E E E E E E Q     E E E E E E Q
e|-7---5---(5)------||----------------||----------------||-----------------|
B|-5---5---(5)------||-----7-----7----||---7-----7------||-----7-----7-----|
G|-5---5---(5)------||---7-----9------||-------7---9----||---6-----9-------|
D|-----4---(4)--4---||-9-----9--------||-9---9-------9--||-8-----8---------|
A|-5----------------||----------------||----------------||-----------------|
E|----------5-------||----------------||----------------||-----------------|
  Q.    E  Q.    E


   E E E E E E Q     E E E E E E Q     E E E E E E Q     E E E E E E E E
e|----------------||----------------||----------------||------------------|
B|---7-----7------||-----8-----7----||---8-----7------||------------------|
G|-------6---9----||---8-----8------||-------8---8----||---------------1--|
D|-8---8-------8--||-7-----7--------||-7---7-------7--||-------0-----0----|
A|----------------||----------------||----------------||-----2---2-4------|
E|----------------||----------------||----------------||-0-4--------------|


   E E Q  E E Q     Q   E E Q   E E    Q   E E Q   E E    E  E E E +Q   E E
e|------------0--||-------------0---||-0---3---3---3---||-5------5-(5)-------|
B|-----0----0----||---------1-------||-----1-------1---||----4---------------|
G|---1----1------||-2---2-----------||-----0-------0---||--------------------|
D|-0-------------||-----2-------2---||-2---2-------2---||------5--------5----|
A|---------------||-0---------------||-0---------------||-3------------------|
E|---------------||---------0-------||---------0-------||-----------3--------|
                   Q.    E Q.    E    Q.    E Q.    E    Q.     E  Q.    E


   Q   E E Q  E E    Q   E E Q   E E    Q   E E Q   E E    Q   Q   +Q   Q
e|---------3--5---||-7-------7-------||-7-------7-------||-5---3---(3)-------|
B|----------------||-7-------7-------||-7-------7-------||-3---3---(3)-------|
G|----------------||-6-------6-------||-5-------5-------||-4---4---(4)--4----|
D|-----5----------||-----5-------5---||-----4-------4---||-----5--------5----|
A|-3--------------||---------7-------||-5---------------||-------------------|
E|----------------||-5---------------||---------5-------||-3--------3--------|
  Q.    E H         Q.    E Q.    E    Q.    E Q.    E    Q.    E  Q.    E


   Q  E E Q  E E     H     Q  Q       W                  H        Q  Q
e|---------------||-----------7--||---5--------------||-(0)----------8--|
B|---------------||--------8-----||-------8----------||----------10-----|
G|---------------||-----9--------||--(9)-----9-------||------10---------|
D|----5---7--9---||-10-----------||-(10)--------10\--||-12--------------|
A|---------------||--------------||------------------||-----------------|
E|---------------||--8-----------||------------------||-----------------|
                    Q  Q  H         +Q   Q  Q   Q       Q    Q   H


    Q.   E H        H     Q  Q       W                  H        Q  Q
e|--7-----------||-----------7--||---5--------------||-(0)----------8---|
B|-10-----------||--------8-----||-------8----------||----------10------|
G|-10-----------||-----9--------||--(9)-----9-------||------10----------|
D|--------------||-10-----------||-(10)--------10\--||-12---------------|
A|--------------||--------------||------------------||------------------|
E|--------------||--8-----------||------------------||------------------|
                   Q  Q  H         +Q   Q  Q   Q       Q    Q   H


    Q.   E Q   E E    Q    E  E  +Q    E E
e|--7--------------||-7--------------------||
B|-10------8--10---||--------10-(10)-------||
G|-10--------------||------9-----------9---||
D|-----------------||-----10----------10---||
A|-----------------||----------------------||
E|-----------------||-8-----------8--------||
                     Q.      E   Q.     E


   Q    E E Q    E E     Q   E E  Q  Q
e|-------------------||--7---7-------7----|
B|-------------------||-10-------10-------|
G|------9--------9---||--8----------------|
D|-----10-------10---||------7-------7----|
A|-------------------||-----------9-------|
E|-8--------8--------||--7----------------|
  Q.     E Q.     E     Q.    E  Q  E E


   +Q   E E Q  E E    Q   E E Q   E E    Q   E E +Q   E E    Q   E E Q  Q
e|-(7)-------------||-----8---8---7---||-8-----7-(7)------||----------------|
B|-----------------||-----7-------7---||------------------||-6---6---5--6---|
G|-----------------||-----7-------7---||-----7--------7---||-6---6---6--6---|
D|------9---8--7---||-6-----------6---||-----6--------6---||-----5------5---|
A|-----------------||-----------------||-7----------------||---------7------|
E|-----------------||---------7-------||----------7-------||-5--------------|
                     Q.    E Q.    E    Q.    E  Q.    E    Q.    E Q  Q


   +E  E E E Q  E E    Q  E E Q   E E    Q.    E Q.    E    Q   E E Q  E E
e|------------------||----7---7-------||-7-------7-------||------------3----|
B|-(6)--------------||----5-------5---||-5-----5---------||-5---5---3--5----|
G|-(6)--------------||----5-------5---||-5---5---5---5---||-4---4---4--4----|
D|-(5)---7---6--5---||-4--4-------4---||-----4-------4---||-----3------3----|
A|------------------||----------------||-5---------------||---------5-------|
E|------------------||--------5-------||---------5-------||-3---------------|
                      Q  E E Q.    E    Q   E E Q   E E    Q.    E Q  E E


   Q   Q.     E E E    Q    E E  Q    E E
e|-----3------------||-----10---10----8---||
B|-----5------------||--------------------||
G|-----4------------||--------------------||
D|-----3------------||-----10--------10---||
A|------------------||--------------------||
E|-3--------5---7---||-8---------8--------||
  Q.     E Q   Q      Q.     E  Q.     E


    Q    E E +Q    E E     Q    E E  Q    E E
e|-10------8-(8)-------||-11--------11---------|
B|---------------------||-11--------11---------|
G|-------9---------9---||-11--------11---------|
D|------10--------10---||------10--------10----|
A|---------------------||-11-------------------|
E|--8---------8--------||-----------11---------|
   Q.     E  Q.     E     Q.     E  Q.     E


    Q    Q    +Q   E E    Q    E  E  +Q    E E
e|-12---10---(10)------||-7--------------------||
B|-10---10---(10)------||--------10-(10)-------||
G|-10---10---(10)------||------9-----------9---||
D|-------9---------9---||-----10----------10---||
A|-10------------------||----------------------||
E|------------10-------||-8-----------8--------||
   Q.     E   Q.    E    Q.      E   Q.     E


   Q    E E Q    E E     Q    Q   Q  Q
e|-------------------||--7---------------|
B|-------------------||-10---------------|
G|------9--------9---||--8-----------8---|
D|-----10-------10---||-----------9------|
A|-------------------||-----<12>---------|
E|-8--------8--------||--7---------------|
  Q.     E Q.     E


   Q    H     Q     Q   E E Q   E E    Q   E E +Q   E E    Q   E E Q   Q
e|------7--------||-----8---8---7---||-8-----7-(7)------||------------------|
B|-7---(7)-------||-----7-------7---||------------------||-6---6---5---6----|
G|-----(8)-------||-----7-------7---||-----7--------7---||-6---6---6---6----|
D|-----(9)-------||-6-----------6---||-----6--------6---||-----5-------5----|
A|----(12)-------||-----------------||-7----------------||---------7--------|
E|---------------||---------7-------||----------7-------||-5----------------|
                   Q.    E Q.    E    Q.    E  Q.    E    Q.    E Q.    E


   +Q   E E Q  E E    Q   E E Q   E E
e|-----------------||-------------5---||
B|-(6)-------------||---------6-------||
G|-(6)--6------6---||-7---7-----------||
D|-(5)--5------5---||-----7-------7---||
A|----------7------||-5---------------||
E|--5--------------||---------5-------||
   Q.    E Q  E E    Q.    E Q.    E


   Q   E E Q   E E     E  E  E  E  +Q    E E
e|-5---8---8---8---||-10-------10-(10)--------|
B|-----6-------6---||-----9-------------------|
G|-----5-------5---||-------------------------|
D|-7---7-------7---||-------10----------10----|
A|-5---------------||--8----------------------|
E|---------5-------||---------------8---------|
  Q.    E Q.    E     Q.       E   Q.     E


   Q    E E Q   Q       Q    E E  Q    E E
e|----------8--10--||--12--------12--------||
B|-----------------||o-13--------13--------||
G|-----------------||--11--------11--------||
D|-----10----------||-------10--------10---||
A|-8---------------||o-----------12--------||
E|-----------------||--10------------------||
  Q.     E H           Q.     E  Q.     E


  1.                    2.
    Q    Q   H           E  E  E  E   Q   Q
e|-12----------------||-12-------12-(12)-------|
B|-13---13----------o||-------12---------------|
G|-11---11-----------||----12--------12--------|
D|------12-----------||--------9----------9----|
A|-----------0------o||-10---------------------|
E|-10----------------||--------------10--------|
   Q.     E Q.   E      Q     Q      Q.    E


                   Q=190   Q=180      Q=160
   H    Q   E E    Q   E E Q   E E    Q   E E Q.   E     W
e|-8----7-------||-6-------5-------||-4-------6------||-^6----*|
B|-8----------8-||-------7-------6-||-------5--------||-^6----*|
G|-9--------8---||-----7-------6---||-----5----------||-^6----*|
D|--------7-----||---6-------5-----||---4------------||-^6----*|
A|--------------||-----------------||----------------||-^4----*|
E|-8----7-------||-6-------5-------||-4--------------||-------*|
  H    E E Q      E E Q   E E Q      E E Q   H


Duration Legend
---------------
W - whole; H - half; Q - quarter; E - 8th; S - 16th; T - 32nd; X - 64th; a - acciaccatura
+ - note tied to previous; . - note dotted; .. - note double dotted
Uncapitalized letters represent notes that are staccato (1/2 duration)
Irregular groupings are notated above the duration line
Duration letters will always appear directly above the note/fret number it represents the
duration for.  Duration letters with no fret number below them represent rests.  Multi-
bar rests are notated in the form Wxn, where n is the number of bars to rest for.  Low
melody durations appear below the staff

************************************************************************************

 h   - hammer-on
 p   - pull-off
 b   - bend
 pb  - pre-bend
 r   - bend release (if no number after the r, then release immediately)
 /\  - slide into or out of (from/to "nowhere")
 s   - legato slide
 S   - shift slide
  - natural harmonic
[n]  - artificial harmonic
n(n) - tapped harmonic
 ~   - vibrato
 tr  - trill
 T   - tap
 TP  - trem. picking
 PM  - palm muting
\n/  - tremolo bar dip; n = amount to dip
 \n  - tremolo bar down
 n/  - tremolo bar up
/n\  - tremolo bar inverted dip
 =   - hold bend; also acts as connecting device for hammers/pulls
 <>  - volume swell (louder/softer)
 x   - on rhythm slash represents muted slash
 o   - on rhythm slash represents single note slash

Misc Legend
-----------
 |  - bar
||  - double bar
||o - repeat start
o|| - repeat end
*|  - double bar (ending)
 :  - bar (freetime)
 $  - Segno
 &  - Coda
Tempo markers -  = BPM(8/16=s8/s16), where s8 = swing 8ths, s16 = swing 16ths

************************************************************************************

 
Suggest correction
comments
print report bad tab
guest
You may want to rate the tab now too:
select rating
Wanna post a correction for this tab? Suggest correction