Oops, an error
Loading. Please wait.
We have an official Mr Sandman tab made by UG professional guitarists. Check out the tab »
×
3,438 views 12 this week
3 commentsread comments
1 2 3 4 5
x 3
add to favorites
×
Save as Personal and add changes to this tab that will be seen only by you. Learn more ›
×
You can save this tab as Personal to edit and correct it or add notes. All changes will be seen only by you. Learn more »
launch autoscroll
font size
0
reset
how to read this tab
guitar tuner
edit
Autoscroll
slow
fast
+/-
esc
set tempo
stop
Author
Difficulty
Mr. Sandman     -       Chet Atkins 

(arr.: R. v/d Horst, mod.: siemj)


Intro:                Amaj7                  Bm        Bm7
e|-----------/---------4/-----------/-------2---5/
B|-----------/------5---/7---5------/---3--------/
G|-----------/---6------/-------6---/4-----------/
D|----2--4--6/7---------/----------7/------------/
A|-----------/----------/-----------/------------/
E|-----------/----------/-----------/------------/

  Bm6         Amaj7                  Bm         Bm7
e|4----------/---------4/-----------/-------2---5/
B|3----------/------5---/7---5------/---3--------/
G|4----------/---6------/-------6---/4-----------/
D|-----------/7---------/----------7/------------/
A|-----------/----------/-----------/------------/
E|-------0---/----------/-----------/------------/

          Verse:
  Bm6           Amaj7 A6      A             G#7
e|4-------0---2/4-----2------/-------------/----4-------4/
B|3------------/2-----2------/-------------/--------7----/
G|4------------/2-----2------/-------------/----5-------5/
D|-------------/----2-------2/----2--------/----4-------4/
A|-------------/0------------/0------------/--------6----/
E|--------0----/--------0----/--------0---2/4------------/


            C#7+5/Ab  C#7/Ab              F#7+5  F#7
e|---------/----5---5---4-/5---5-------4-/-------------/
B|---------/----6---6---6-/6---6-------6-/----3-----2--/
G|---------/----4---4---4-/4---4-------4-/----3-----3--/
D|---------/----6-------6-/----6-------6-/----2-------2/
A|--------3/4-------------/4-------------/--------4----/
E|4---4-6--/--------4-----/--------4-----/-2-----------/

                B13     B7               E6       E6
e|------------/-------------/----7----------/---------------/
B|3-----------/----7h9---7--/7h9-----9---7--/-----2-----0---/
G|3-----------/----8-----8--/8-------8---8--/-----1-----1---/
D|2-----------/----7-------7/------7-------7/-----2--------0/
A|------------/--------9----/----------9----/---------2-----/
E|2---2---4--6/7------------/7--------------/-0-------------/

  E6        Aadd9      A7
e|---0------/-----7-------5/7---5---7---5/8-------8------/
B|2---------/-----5-------5/7---5---7---5/8-------8------/
G|1---------/-----6-------6/5------------/8-------8------/
D|2---------/-----7-------5/4------------/7-------7------/
A|----------/---------7----/-------------/---------------/
E|0----0-2-4/-5------------/-------------/---------------/

  Amaj7 A6      A             F7            G#7
e|9---7---0---2/4-----2------/-------------/----4-------4---|
B|7------------/2-----2------/-------------/--------7-------|
G|7------------/2-----2------/-------------/----5-------5---|
D|6------------/----2-------2/----2--------/----4-------4---|
A|-------------/0------------/0------------/--------6-------|
E|-------------/--------0----/--------0---2/4---------------|


            C#7+5/Ab  C#7/Ab              F#7+5   F#7
e|---------/----5---5---4-/5---5-------4-/-------------/
B|---------/----6---6---6-/6---6-------6-/----3---2---3/
G|---------/----4---4---4-/4---4-------4-/----3---3---3/
D|---------/----6-------6-/----6-------6-/----2-------2/
A|--------3/4-------------/4-------------/--------4----/
E|4---4-6--/--------4-----/--------4-----/-2-----------/


  F#7           Bm/F#         Bm7/F#        Dm6/A
e|-------------/------------2/----5---5---5/7------------/
B|--------2----/------3------/----3-------3/6------------/
G|--------3----/4------------/----2-------2/7------------/
D|----2-------2/4---4-------4/----4-------4/7---7-------7/
A|--------4----/2------------/2------------/5------------/
E|2------------/--------2----/--------2----/--------5----/


   B9/C           E13             A
E|9------9-------/9---5---9------/5------------//
B|10-----10------/5--------------/5------------//
G|8------8-------/7--------------/6------------//
D|9--------------/6--------------/7------------//
A|-------9---8---/7--------------/7------------//
E|---------------/---------------/5------------//

This is a piece my teachter wrote in order to introduce Chet Atkins 
to his audience. As it became my homework I thought it would sound 
more like the original if I added more of walking bass. It then became 
much harder to play but more rewarding.


            
            
Suggest correction
Creating personal tab
Creating personal tab
You can edit any tab online and save it as your Personal.

You can edit, replace or remove any tab part or add personal notes – all changes will be seen only by you.

Personal tabs can be accessed anytime from any device, even offline.
Learn more »
Give kudos to tab author, rate the tab!
1 2 3 4 5
comments
print report bad tab
3 comments total.
0 reply
FL_Bob2002 578 Sep 25, 2015 07:11 AM

This arrangement is a lot easier to follow than others posted. I'm giving you the 5 stars. It even sounded like the song. Thank you,

0 reply
jangman 10 Jan 03, 2016 08:54 AM

Good tab. But you missed the chord F7 at the beginning of the verse, it's really G#7.

guest
You may want to rate the tab now too:
select rating
Wanna post a correction for this tab? Suggest correction