Oops, an error
Loading. Please wait.

Dead Body chords

3,085 views 30 this week
no commentswrite comment
1 2 3 4 5
x 4
add to favorites
×
Save as Personal and add changes to this tab that will be seen only by you. Learn more ›
×
You can save this tab as Personal to edit and correct it or add notes. All changes will be seen only by you. Learn more »
launch autoscroll
font size
0
reset
transpose
0
reset
simplify chords
display chords
guitar tuner
edit
Autoscroll
slow
fast
+/-
esc
set tempo
stop
Author
Difficulty
Strumming
There is no strumming pattern for this song yet. and get +5 IQ
[Chords]
    G7 G9   Dm7 D9sus4  Em7           
e|--3--5----5---5-------7---|
B|--3--3----6---5h6-----8---|
G|--4--4----5---5-------7---|
D|--3--3----7---5h7-----9---|
A|--5--5----5---5-------7---|
E|--3--3----x---x-------x---|

[Intro]
Dm7 Em7 Dm7 Em7 

[Verse 1]
Dm7
Over my dead body
G7
I will never shake this feeling away
        Dm7                              D9sus4
Someone told me they'd bet I'll be sorry
G7
    I can't be wrong enough

[Chorus]
Em7
  So do we fail if you don't want me now
Dm7                      D9sus4
  Is this wrong, save a life under light
Em7
  I can be wrong if not then live without me
Dm7                  D9sus4
To me to see similar

[Verse 2]
Em7                      Dm7       D9sus4
   Cause you don't belong with me
           G7         G7 G9 G7
Nobody grows for free
Dm7                       D9sus4
Sometimes it's good to be
G7                G7 G9 G7
Lost in your head
       Dm7               D9sus4
I said over my dead body
Em7
I will never shake this feeling away
        Dm7                              D9sus4
Someone told me they'd bet I'll be sorry
G7
    I can't be wrong enough

[Chorus]
Em7
  So do we fail if you don't want me now
Dm7                                      D9sus4
  Is this wrong, save a life under light
Em7
  I can be wrong if not then live without me
Dm7                    D9sus4  Em7~~~
  To me to see similar

e|--------------------------------------------|
B|--------------------------------------------|
G|-10h12-10-9-10~-----------------------------|
D|----------------10s-7~--7-9-10-9s-5s-2------|
A|--------------------------------------------|
E|--------------------------------------------|

e|--------------------------------------------|
B|--------------------------------------------|
G|-10h12-10-9-10~-----------------------------|
D|----------------10s-7~--7-9-10-9s-5-5s7-5---|
A|--------------------------------------------|
E|--------------------------------------------|

e|--------------------------------------------|
B|--------------------------------------------|
G|-7h9-7-5-9-9-9~--9-10-9---------------------|
D|------------------------9s-7s-5-------------|
A|--------------------------------------------|
E|--------------------------------------------|

e|-----------------------------15---15----20!-|
B|-------13-15-15s17-15-13-12----12-----------|
G|-12-14------------------------------12------|
D|--------------------------------------------|
A|--------------------------------------------|
E|--------------------------------------------|

e|-10h12-10-8-10------------------------------|
B|---------------10----8-10-------------------|
G|-------------------------9------------------|
D|--------------------------10-9--------------|
A|------------------------------10s12---------|
E|--------------------------------------------|

            
            
Suggest correction
Creating personal tab
Creating personal tab
You can edit any tab online and save it as your Personal.

You can edit, replace or remove any tab part or add personal notes – all changes will be seen only by you.

Personal tabs can be accessed anytime from any device, even offline.
Learn more »
comments
print report bad tab
guest
You may want to rate the tab now too:
select rating
Wanna post a correction for this tab? Suggest correction