Oops, an error
Loading. Please wait.

Drop The Game Chords

114,058 views 612 this week
5 commentsread comments
1 2 3 4 5
x 101
add to favorites
launch autoscroll
font size
0
reset
transpose
0
reset
simplify chords
display chords
guitar tuner
Autoscroll
slow
fast
+/-
esc
set tempo
stop
Help us to improve Ultimate-Guitar.com Take our survey!
×
Author
----------------------------------------------------------------- 
Drop The Game - Flume & Chet Faker 
----------------------------------------------------------------- 
Tabbed by:    Tom Eady          
Email:        Tomeady97@gmail.com       
Tuning:       Standard

Note: The timing may be slightly off, Email a suggestion if it doesn't sound right.


[Intro]

Am                                          C
I've been seeing all, I've been seeing your soul
                      E
Give me things that I wanted to know
                           Am
Tell me things that you've done

Am                                       C      
I've been feeling old, I've been feeling cold
                       E
You're the heat that I know
                    Am
They say you are my sun.


[Hook]

(Oh Oh Oh Oh Oh etc..) [Am, C, E, Am] 

e|5-8-5---8-5----------------------------------------------------|
B|------------8-5-3-8-5---8-5-------8-5--------------------8-5---|
G|----------------------------7-5-7-------4-5-7-9--4-5-7-9-------|
D|---------------------------------------------------------------|
A|---------------------------------------------------------------|
E|---------------------------------------------------------------|

x2


[Verse]

Am                                     C
Hush, I said there's more to life than rush
                                E7
Not gonna leave this place with us
                        Am
Drop the game, it's not enough.

Am                                     C
Hush, I said there's more to life than rush
                                E7
Not gonna leave this place with us
                        Am
Drop the game, it's not enough.


[Chorus]

Am                                          C
I've been seeing all, I've been seeing your soul
                      E
Give me things that I wanted to know
                           Am
Tell me things that you've done

Am                                       C      
I've been feeling old, I've been feeling cold
                       E
You're the heat that I know
                    Am
They say you are my sun.


[Hook]

(Oh Oh Oh Oh Oh etc..) [Am, C, E, Am] 

e|5-8-5---8-5----------------------------------------------------|
B|------------8-5-3-8-5---8-5-------8-5--------------------8-5---|
G|----------------------------7-5-7-------4-5-7-9--4-5-7-9-------|
D|---------------------------------------------------------------|
A|---------------------------------------------------------------|
E|---------------------------------------------------------------|

x2


[Chorus] x2

Am                                          C
I've been seeing all, I've been seeing your soul
                      E
Give me things that I wanted to know
                           Am
Tell me things that you've done

Am                                       C      
I've been feeling old, I've been feeling cold
                       E
You're the heat that I know
                    Am
They say you are my sun.


[Outro]

(Same as hook) x5
Suggest correction
comments
print report bad tab
5 comments total. Showing first comments.
+1 reply
jammonkey 32 Jul 18, 2014 04:43 PM

I like playing this with capo on the 3rd fret. I don't know about anyone else but it fits me best that way.

+1 reply
julialand2009 14 Sep 30, 2014 04:56 PM

I like playing it with a capo on the 1st fret. Not a drastic difference ,but I like it that way.

+1 reply
joelyholder 31 Dec 27, 2014 04:49 PM

accurate man 5 stars

guest
You may want to rate the tab now too:
select rating
Wanna post a correction for this tab? Suggest correction