Oops, an error
Loading. Please wait.

The Trouble With Us tab

version 1
version 1

Whole song

Interactive

28,819 views 66 this week
6 commentsread comments
1 2 3 4 5
x 16
add to favorites
×
Save as Personal and add changes to this tab that will be seen only by you. Learn more ›
×
You can save this tab as Personal to edit and correct it or add notes. All changes will be seen only by you. Learn more »
launch autoscroll
font size
0
reset
how to read this tab
guitar tuner
edit
Autoscroll
slow
fast
+/-
esc
set tempo
stop
Author
Difficulty
intermediate
Chet Faker & Marcus Marr  The Trouble With Us
Enjoy!
No capo
Standard tuning

These chords can be used:
Em         D          C          Am        Bm*
022000     xx0232     032010     002210    024420
*Bm only used in chorus
[C/B before and after Am works]
In the order Em, D, C, Am, C, (Bm)

Or the tab:


[Verse 1]

e|------------------------------------------------------------------/7-5----------------------|
B|------------8----7\5----5-------5--------------------------------------8-7-5-8--------------|
G|-0------------------------------------------0----------------0-0-----------------7\5----5---|
D|---0----------------------------------0------------0---0------------------------------------|
A|-----0h2--7----5-----3----2/3------2-----0--0----0---2----3--3-3-----------7---5------3-----|
E|--------------------------------------------------------------------------------------------|

e|--------------------------------------------------------------|
B|--------------------------------------------------------------|
G|--------5-----------0----------------0---0--------------------|
D|--------------0------------0---0-----------0------------------|
A|--2/3------2-----0--0----0---2----3---------0h2---------------|
E|--------------------------------------------------------------|

e|----------------------------------------------------------/7-5----------------------|
B|----8----7\5----5-------5--------------------------------------8-7-5-8--------------|
G|------------------------------------0----------------0-0-----------------7\5----5---|
D|------------------------------0------------0---0------------------------------------|
A|--7----5-----3----2/3------2-----0--0----0---2----3--3-3-----------7---5------3-----|
E|------------------------------------------------------------------------------------|

e|--------------------------------------------------------------|
B|--------------------------------------------------------------|
G|--------5-----------0----------------0-0-0-0-0-0-0-0-0-0-0-0--|
D|--------------0------------0---0------------------------------|
A|--2/3------2-----0--0----0---2----3---------------------------|
E|--------------------------------------------------------------|

e|-------------------------------------------------------------------------|
B|-----8---7\5---5-------5-------------------------------------------------|
G|------------------------------------0----------------0---0---------------|
D|------------------------------0------------0---0-----------0-------------|
A|--7----5-----3----2/3------2-----0--0----0---2----3---------0h2----------|
E|-------------------------------------------------------------------------|

e|------------------------------------------------------------------------------|
B|----8----7\5---5-------5------------------------------------------------------|
G|------------------------------------0----------------0-0-0-0-0-0-0-0-0-0-0-0--|
D|------------------------------0------------0---0------------------------------|
A|--7----5-----3----2/3------2-----0--0----0---2----3---------------------------|
E|------------------------------------------------------------------------------|


[Pre-Chorus]

e|----------------------------------------------------------/7-5----------------------|
B|----8----7\5----5-------5--------------------------------------8-7-5-8--------------|
G|------------------------------------0----------------0-0-----------------7\5----5---|
D|------------------------------0------------0---0------------------------------------|
A|--7----5-----3----2/3------2-----0--0----0---2----3--3-3-----------7---5------3-----|
E|------------------------------------------------------------------------------------|

e|---------------------------------------------------------------|
B|--------5------------------------------------------------------|
G|--------------------0----------------0-0-0-0-0-0-0-0-0-0-0-0---|
D|--------------0------------0---0-------------------------------|
A|--2/3------2-----0--0----0---2----3----------------------------|
E|------------------------------------------------------------3--|


[Chorus x2]

e|-------------------------------------------------------------------------|
B|-----8---7\5---5-------5-------------------------------------------------|
G|------------------------------------0----------------0---0---------------|
D|------------------------------0------------0---0-----------0-------------|
A|--7----5-----3----2/3------2-----0--0----0---2----3---------0h2----------|
E|-------------------------------------------------------------------------|

e|-------------------------------------------------------------------------------|
B|----8----7\5---5-------5-------------------------------------------------------|
G|------------------------------------0----------------0-0-0-0-0-0-0-0-0-0-0-0---|
D|------------------------------0------------0---0-------------------------------|
A|--7----5-----3----2/3------2-----0--0----0---2----3----------------------------|
E|----------------------------------------------------------------------------3--|
(After second time through:)
e|----------------------|
B|----8----7\5----5-----|
G|----------------------|
D|----------------------|
A|--7---5-------3-------|
E|----------------------|


[Verse 2]

e|----------------------------------------------------------/7-5----------------------|
B|----8----7\5----5-------5--------------------------------------8-7-5-8--------------|
G|------------------------------------0----------------0-0-----------------7\5----5---|
D|------------------------------0------------0---0------------------------------------|
A|--7----5-----3----2/3------2-----0--0----0---2----3--3-3-----------7---5------3-----|
E|------------------------------------------------------------------------------------|

e|--------------------------------------------------------------|
B|--------5-----------------------------------------------------|
G|--------------------0----------------0---0--------------------|
D|--------------0------------0---0-----------0------------------|
A|--2/3------2-----0--0----0---2----3---------0h2---------------|
E|--------------------------------------------------------------|

e|----------------------------------------------------------/7-5----------------------|
B|----8----7\5----5-------5--------------------------------------8-7-5-8--------------|
G|------------------------------------0----------------0-0-----------------7\5----5---|
D|------------------------------0------------0---0------------------------------------|
A|--7----5-----3----2/3------2-----0--0----0---2----3--3-3-----------7---5------3-----|
E|------------------------------------------------------------------------------------|

e|---------------------------------------------------------------|
B|--------5------------------------------------------------------|
G|--------------------0----------------0-0-0-0-0-0-0-0-0-0-0-0---|
D|--------------0------------0---0-------------------------------|
A|--2/3------2-----0--0----0---2----3----------------------------|
E|------------------------------------------------------------3--|

e|-------------------------------------------------------------------------|
B|-----8---7\5---5-------5-------------------------------------------------|
G|------------------------------------0----------------0---0---------------|
D|------------------------------0------------0---0-----------0-------------|
A|--7----5-----3----2/3------2-----0--0----0---2----3---------0h2----------|
E|-------------------------------------------------------------------------|

e|-------------------------------------------------------------------------------|
B|----8----7\5---5-------5-------------------------------------------------------|
G|------------------------------------0----------------0-0-0-0-0-0-0-0-0-0-0-0---|
D|------------------------------0------------0---0-------------------------------|
A|--7----5-----3----2/3------2-----0--0----0---2----3----------------------------|
E|----------------------------------------------------------------------------3--|


[Pre-Chorus]

e|----------------------------------------------------------/7-5----------------------|
B|----8----7\5----5-------5--------------------------------------8-7-5-8--------------|
G|------------------------------------0----------------0-0-----------------7\5----5---|
D|------------------------------0------------0---0------------------------------------|
A|--7----5-----3----2/3------2-----0--0----0---2----3--3-3-----------7---5------3-----|
E|------------------------------------------------------------------------------------|

e|---------------------------------------------------------------|
B|--------5------------------------------------------------------|
G|--------------------0----------------0-0-0-0-0-0-0-0-0-0-0-0---|
D|--------------0------------0---0-------------------------------|
A|--2/3------2-----0--0----0---2----3----------------------------|
E|------------------------------------------------------------3--|


[Chorus x2]

e|-------------------------------------------------------------------------|
B|-----8---7\5---5-------5-------------------------------------------------|
G|------------------------------------0----------------0---0---------------|
D|------------------------------0------------0---0-----------0-------------|
A|--7----5-----3----2/3------2-----0--0----0---2----3---------0h2----------|
E|-------------------------------------------------------------------------|

e|-------------------------------------------------------------------------------|
B|----8----7\5---5-------5-------------------------------------------------------|
G|------------------------------------0----------------0-0-0-0-0-0-0-0-0-0-0-0---|
D|------------------------------0------------0---0-------------------------------|
A|--7----5-----3----2/3------2-----0--0----0---2----3----------------------------|
E|----------------------------------------------------------------------------3--|


[Outro]

e|----------------------------------------------------------/7-5----------------------|
B|----8----7\5----5-------5--------------------------------------8-7-5-8--------------|
G|------------------------------------0----------------0-0-----------------7\5----5---|
D|------------------------------0------------0---0------------------------------------|
A|--7----5-----3----2/3------2-----0--0----0---2----3--3-3-----------7---5------3-----|
E|------------------------------------------------------------------------------------|

e|---------------------------------------------------------------|
B|--------5------------------------------------------------------|
G|--------------------0----------------0-0-0-0-0-0-0-0-0-0-0-0---|
D|--------------0------------0---0-------------------------------|
A|--2/3------2-----0--0----0---2----3----------------------------|
E|------------------------------------------------------------3--|



************************************

h  - hammer-on
p  - pull-off
/  - slide up
\  - slide down

************************************

            
            
Suggest correction
Creating personal tab
Creating personal tab
You can edit any tab online and save it as your Personal.

You can edit, replace or remove any tab part or add personal notes – all changes will be seen only by you.

Personal tabs can be accessed anytime from any device, even offline.
Learn more »
comments
print report bad tab
6 comments total. Showing first comments.
+2 reply
JimmyO96 170 Dec 07, 2015 11:28 PM, edited on December 8 2015, 04:29 am

Nice job! You might just want to fix up the start where you have marked the 8 on the G string followed by the 7/5 etc. Those notes should be on the B string instead, hope that makes sense..

+1 reply
NickFrangos 147 Dec 10, 2015 05:30 PM

Oh crap, thanks for pointing it out

0 reply
Roqua_99 43 Dec 15, 2015 08:33 PM

Love it, but it's too hard for me. Great tab!

guest
You may want to rate the tab now too:
select rating
Wanna post a correction for this tab? Suggest correction