Oops, an error
Loading. Please wait.

To Me tab

version 2
version 2

Whole song

433 views 6 this week
no commentswrite comment
1 2 3 4 5
2 more votes to show rating
add to favorites
×
Save as Personal and add changes to this tab that will be seen only by you. Learn more ›
×
You can save this tab as Personal to edit and correct it or add notes. All changes will be seen only by you. Learn more »
launch autoscroll
font size
0
reset
how to read this tab
guitar tuner
edit
Autoscroll
slow
fast
+/-
esc
set tempo
stop
Author
Difficulty
-------------------------------------------------------------------------------
                             TO ME - CHET FAKER
                     www.youtube.com/watch?v=L-J9VEJKx0g
-------------------------------------------------------------------------------
Tabbed by: DaLai LAHNER

Tuning: Standard E-A-D-G-B-E
 
      G           Bb            D#
 e|-------|   e|-------|   e|-------|
 B|-------|   B|-------|   B|-------|
 G|-------|   G|-------|   G|---8---|
 D|---5---|   D|---8---|   D|---8---|
 A|---5---|   A|---8---|   A|---6---|
 E|---3---|   E|---6---|   E|-------|
 
                  or
 
                  Bb
              e|-------|
              B|-------|
              G|---3---|
              D|---3---|
              A|---1---|
              E|-------|
 
 
 
 
    You  keep on   ly---ing,                You  keep on   ly---ing,      to   me
e|----------------------------------------------------------------------------------|
B|----------------------------------------------------------------------------------|
G|----------------------------------------------------------------------------------|
D|--5---------5---------5---------5---------5---------5---------5---------5---------|
A|--5---------5---------5---------5---------5---------5---------5---------5---------|
E|-------3---------3---------3---------3---------3---------3---------3---------3----|


e|----------------------------------------------------------------------------------|
B|----------------------------------------------------------------------------------|
G|----------------------------------------------------------------------------------|
D|--8---------8---------8---------8---------8---------8---------8---------8---------|
A|--8---------8---------8---------8---------8---------8---------8---------8---------|
E|-------6---------6---------6---------6---------6---------6---------6---------6----|
 
You're keeping me tight, You're keeping me tight, I see
You keep on tying, enough to rely on me
You keep on lying, enough to deny you can see
 
 
When
you curl up   in   bed       and       it's you  in  youre head      now,        are you living?

e|----------------------------------------------------------------------------------|
B|----------------------------------------------------------------------------------|
G|--8---------8---------8---------8---------8---------8---------8---------8---------|
D|--8---------8---------8---------8---------8---------8---------8---------8---------|
A|-------6---------6---------6---------6---------6---------6---------6---------6----|
E|----------------------------------------------------------------------------------|

e|----------------------------------------------------------------------------------|
B|----------------------------------------------------------------------------------|
G|--3---------3---------3---------3---------3---------3---------3---------3---------|
D|--3---------3---------3---------3---------3---------3---------3---------3---------|
A|-------1---------1---------1---------1---------1---------1---------1---------1----|
E|----------------------------------------------------------------------------------|
 
When you look straight ahead and you wish you were dead now, are you giving?
 
 
You're giving it all for nothing, you're giving it all for nothing, I know
You're giving it all for nothing, you're giving it all for nothing, I know
 
 
You keep on lying, you keep on lying, to me
You're keeping me tight, you're keeping me tight, I see
You keep on tying, enough to rely on me
You keep on lying, enough to deny you can see
 
 
When you curl up in bed and it's you in you're head now, are you living?
When you look straight ahead and you wish you were dead now, are you giving?
 
 
You keep on lying, you keep on lying, to me
You're keeping me tight, you're keeping me tight, I see
You keep on tying, enough to rely on me
You keep on lying, enough to deny you can see

            
            
Suggest correction
Creating personal tab
Creating personal tab
You can edit any tab online and save it as your Personal.

You can edit, replace or remove any tab part or add personal notes – all changes will be seen only by you.

Personal tabs can be accessed anytime from any device, even offline.
Learn more »
Give kudos to tab author, rate the tab!
1 2 3 4 5
comments
print report bad tab
guest
You may want to rate the tab now too:
select rating
Wanna post a correction for this tab? Suggest correction