Oops, an error
Loading. Please wait.

Fuera De Lugar tab

version 1
version 1

Whole song

by Chetes
39 views 1 this week
no commentswrite comment
1 2 3 4 5
3 more votes to show rating
add to favorites
×
Save as Personal and add changes to this tab that will be seen only by you. Learn more ›
×
You can save this tab as Personal to edit and correct it or add notes. All changes will be seen only by you. Learn more »
launch autoscroll
font size
0
reset
how to read this tab
guitar tuner
edit
Autoscroll
slow
fast
+/-
esc
set tempo
stop
Ab       C#  Ab     Ab    C#   Ab
e-6--6------6--6---6--6-------6--6------
B-6--6-/-6--6--6---6--6--/-6--6--6------
D-7--7-/-6--7--7---7--7--/-6--7--7------
G-8--8-/-6--8--8---8--8--/-6--8--8------
A-8--8------8--8---8--8-------8--8------
E-6--6------6--6---6--6-------6--6------

nunca es suficiente yo solo quiero mas
Ab       C#  Ab     Ab    C#   Ab
e-6--6------6--6---6--6-------6--6------
B-6--6-/-6--6--6---6--6--/-6--6--6------
D-7--7-/-6--7--7---7--7--/-6--7--7------
G-8--8-/-6--8--8---8--8--/-6--8--8------
A-8--8------8--8---8--8-------8--8------
E-6--6------6--6---6--6-------6--6------

y aunque todo el mundo me empieze a buscar
Ab       C#  Ab     Ab    C#   Ab
e-6--6------6--6---6--6-------6--6------
B-6--6-/-6--6--6---6--6--/-6--6--6------
D-7--7-/-6--7--7---7--7--/-6--7--7------
G-8--8-/-6--8--8---8--8--/-6--8--8------
A-8--8------8--8---8--8-------8--8------
E-6--6------6--6---6--6-------6--6------


yo se no estoy mal solo estoy fuera de
       G#              D#
e------4---------------6--------------
B------4---------------8--------------
D------5---------------8--------------
G------6---------------8--------------
A------6---------------6--------------
E------4---------------6--------------

 lugar
Ab       C#  Ab
e-6--6-------6
B-6--6-/-6---6
D-7--7-/-6---7
G-8--8-/-6---8
A-8--8-------8
E-6--6-------6

       G#              D#
e------4---------------6--------------
B------4---------------8--------------
D------5---------------8--------------
G------6---------------8--------------
A------6---------------6--------------
E------4---------------6--------------


Ab       C#  Ab
e-6--6-------6
B-6--6-/-6---6
D-7--7-/-6---7
G-8--8-/-6---8
A-8--8-------8
E-6--6-------6

que todos somos uno sabes que eso no es verdad
Ab       C#  Ab     Ab    C#   Ab
e-6--6------6--6---6--6-------6--6------
B-6--6-/-6--6--6---6--6--/-6--6--6------
D-7--7-/-6--7--7---7--7--/-6--7--7------
G-8--8-/-6--8--8---8--8--/-6--8--8------
A-8--8------8--8---8--8-------8--8------
E-6--6------6--6---6--6-------6--6------

piensa en tu futuro y en nadie mas
Ab       C#  Ab     Ab    C#   Ab
e-6--6------6--6---6--6-------6--6------
B-6--6-/-6--6--6---6--6--/-6--6--6------
D-7--7-/-6--7--7---7--7--/-6--7--7------
G-8--8-/-6--8--8---8--8--/-6--8--8------
A-8--8------8--8---8--8-------8--8------
E-6--6------6--6---6--6-------6--6------

A veces me confundo yo me puedo equivocar
       D#              D#
e------6---------------6--------------
B------8---------------8--------------
D------8---------------8--------------
G------8---------------8--------------
A------6---------------6--------------
E------6---------------6--------------

pero no estoy mal solo estoy fuera de
       G#              D#
e------4---------------6--------------
B------4---------------8--------------
D------5---------------8--------------
G------6---------------8--------------
A------6---------------6--------------
E------4---------------6--------------


 lugar
Ab       C#  Ab
e-6--6-------6
B-6--6-/-6---6
D-7--7-/-6---7
G-8--8-/-6---8
A-8--8-------8
E-6--6-------6


yo se no estoy mal solo estoy fuera de
       G#              D#
e------4---------------6--------------
B------4---------------8--------------
D------5---------------8--------------
G------6---------------8--------------
A------6---------------6--------------
E------4---------------6--------------

 lugar
Ab       C#  Ab
e-6--6-------6
B-6--6-/-6---6
D-7--7-/-6---7
G-8--8-/-6---8
A-8--8-------8
E-6--6-------6

       G#              D#
e------4---------------6--------------
B------4---------------8--------------
D------5---------------8--------------
G------6---------------8--------------
A------6---------------6--------------
E------4---------------6--------------

 Alguien que me diga por donde
  F#        C#           G#   D#
e-2---------4------------4----6-------
B-2---------6------------4----8-------
D-3---------6------------5----8-------
G-4---------6------------6----8-------
A-4---------4------------6----6-------
E-2---------4------------4----6-------

 Donde todo sea normal
  F#        C#           G#   D#
e-2---------4------------4----6-------
B-2---------6------------4----8-------
D-3---------6------------5----8-------
G-4---------6------------6----8-------
A-4---------4------------6----6-------
E-2---------4------------4----6-------

  Y en el lado opuesto
  F#        C#
e-2---------4------------
B-2---------6------------
D-3---------6------------
G-4---------6------------
A-4---------4------------
E-2---------4------------

 Todo me parece increible
  F
e-1-------------------------
B-1-------------------------
D-2-------------------------
G-3-------------------------
A-3-------------------------
E-1-------------------------

 Ahora se que nada es imposible
        D#
e-------6-------------------
B-------8-------------------
D-------8-------------------
G-------8-------------------
A-------6-------------------
E-------6-------------------


Riff

Ab       C#  Ab     Ab    C#   Ab
e-6--6------6--6---6--6-------6--6------
B-6--6-/-6--6--6---6--6--/-6--6--6------
D-7--7-/-6--7--7---7--7--/-6--7--7------  X2
G-8--8-/-6--8--8---8--8--/-6--8--8------
A-8--8------8--8---8--8-------8--8------
E-6--6------6--6---6--6-------6--6------


       D#              D#
e------6---------------6--------------
B------8---------------8--------------
D------8---------------8--------------
G------8---------------8--------------
A------6---------------6--------------
E------6---------------6--------------

       G#              D#
e------4---------------6--------------
B------4---------------8--------------
D------5---------------8--------------
G------6---------------8--------------
A------6---------------6--------------
E------4---------------6--------------

 Ab
e-6--
B-6--
D-7--
G-8--
A-8--
E-6--


Ab       C#  Ab     Ab    C#   Ab
e-6--6------6--6---6--6-------6--6------
B-6--6-/-6--6--6---6--6--/-6--6--6------
D-7--7-/-6--7--7---7--7--/-6--7--7------ X2
G-8--8-/-6--8--8---8--8--/-6--8--8------
A-8--8------8--8---8--8-------8--8------
E-6--6------6--6---6--6-------6--6------


 Alguien que me diga por donde
  F#        C#           G#   D#
e-2---------4------------4----6-------
B-2---------6------------4----8-------
D-3---------6------------5----8-------
G-4---------6------------6----8-------
A-4---------4------------6----6-------
E-2---------4------------4----6-------

 Donde todo sea normal
  F#        C#           G#   D#
e-2---------4------------4----6-------
B-2---------6------------4----8-------
D-3---------6------------5----8-------
G-4---------6------------6----8-------
A-4---------4------------6----6-------
E-2---------4------------4----6-------

  Y en el lado opuesto
  F#        C#
e-2---------4------------
B-2---------6------------
D-3---------6------------
G-4---------6------------
A-4---------4------------
E-2---------4------------

 Todo me parece increible
  F
e-1-------------------------
B-1-------------------------
D-2-------------------------
G-3-------------------------
A-3-------------------------
E-1-------------------------

 Ahora se que nada es imposible
        D#
e-------6-------------------
B-------8-------------------
D-------8-------------------
G-------8-------------------
A-------6-------------------
E-------6-------------------

Dime que no entiendes yo te puedo explicar
Ab       C#  Ab     Ab    C#   Ab
e-6--6------6--6---6--6-------6--6------
B-6--6-/-6--6--6---6--6--/-6--6--6------
D-7--7-/-6--7--7---7--7--/-6--7--7------
G-8--8-/-6--8--8---8--8--/-6--8--8------
A-8--8------8--8---8--8-------8--8------
E-6--6------6--6---6--6-------6--6------

Me sigues la corriente no llegas a ningun lugar
Ab       C#  Ab     Ab    C#   Ab
e-6--6------6--6---6--6-------6--6------
B-6--6-/-6--6--6---6--6--/-6--6--6------
D-7--7-/-6--7--7---7--7--/-6--7--7------
G-8--8-/-6--8--8---8--8--/-6--8--8------
A-8--8------8--8---8--8-------8--8------
E-6--6------6--6---6--6-------6--6------

A veces me confundo yo me puedo equivocar
       D#              D#
e------6---------------6--------------
B------8---------------8--------------
D------8---------------8--------------
G------8---------------8--------------
A------6---------------6--------------
E------6---------------6--------------

pero no estoy mal solo estoy fuera de
       G#              D#
e------4---------------6--------------
B------4---------------8--------------
D------5---------------8--------------
G------6---------------8--------------
A------6---------------6--------------
E------4---------------6--------------


 lugar
Ab       C#  Ab
e-6--6-------6
B-6--6-/-6---6
D-7--7-/-6---7
G-8--8-/-6---8
A-8--8-------8
E-6--6-------6


yo se no estoy mal solo estoy fuera de
       G#              D#
e------4---------------6--------------
B------4---------------8--------------
D------5---------------8--------------
G------6---------------8--------------
A------6---------------6--------------
E------4---------------6--------------

 lugar
Ab       C#  Ab
e-6--6-------6
B-6--6-/-6---6
D-7--7-/-6---7
G-8--8-/-6---8
A-8--8-------8
E-6--6-------6

  Fuera de lugar Fuera de lugar
       F#              D#
e------2---------------6--------------
B------2---------------8--------------
D------3---------------8--------------
G------4---------------8--------------
A------4---------------6--------------
E------2---------------6--------------

Fuera de lugar
          Ab
e---------6--
B---------6--
D---------7--
G---------8--
A---------8--
E---------6--

no ps esta vez no hay dedicacion xD
esta chida la cancion, el disco de chetes
esta muy bueno...
cualquier duda al zurdokmexico@

            
            
Suggest correction
Creating personal tab
Creating personal tab
You can edit any tab online and save it as your Personal.

You can edit, replace or remove any tab part or add personal notes – all changes will be seen only by you.

Personal tabs can be accessed anytime from any device, even offline.
Learn more »
Give kudos to tab author, rate the tab!
1 2 3 4 5
comments
print report bad tab
guest
Wanna post a correction for this tab? Suggest correction