Oops, an error
Loading. Please wait.

Fuera De Lugar tab

version 2
version 2

Whole song

by Chetes
41 views 1 this week
no commentswrite comment
1 2 3 4 5
3 more votes to show rating
add to favorites
×
Save as Personal and add changes to this tab that will be seen only by you. Learn more ›
×
You can save this tab as Personal to edit and correct it or add notes. All changes will be seen only by you. Learn more »
launch autoscroll
font size
0
reset
how to read this tab
guitar tuner
edit
Autoscroll
slow
fast
+/-
esc
set tempo
stop
PUES AHI ESTA LA ROLA DE CHETES FUERA DE LUGAR LA TABLATURA PASADA
TIENE CASI TODO BIEN LO QUE CAMBIO DRASTICAMENTE FUE EL RIFF PRINCIPAL
ESTE ES EL BUENO. DUDAS Y COMENTARIOS A renirvano@
Bb
----------------------------------
----------------------------------
--3-3-x---3-x---3-----------------
--3-3-x---3-x---3-----------------
--1-1-x-4-1-x-4-1-----------------
-------------------4-en esta nota jalas la cuerda para que suba medio tono

Bb
---------------------------------
---------------------------------
--3-3-x---3-x---------------------
--3-3-x---3-x--------------------
--1-1-x-4-1-x--------------------
--------------4 jalas la cuerda medio tono

Bb
----------------------------------
----------------------------------
--3-3-x---3-x---3-----------------
--3-3-x---3-x---3-----------------
--1-1-x-4-1-x-4-1-----------------
-------------------4-en esta nota jalas la cuerda para que suba medio tono

Bb
----------------------------------
----------------------------------
--3-3-x---3-x---3-----------------
--3-3-x---3-x---3-----------------
--1-1-x-4-1-x-4-1--4--------------
----------------------------------

Bb
----------------------------------
----------------------------------
--3-3-x---3-x---3-----------------
--3-3-x---3-x---3-----------------
--1-1-x-4-1-x-4-1-----------------
-------------------4-en esta nota jalas la cuerda para que suba medio tono
ya con ese te sigues hasta.....

          G#                   D#             Bb
YO SE QUE NO ESTOY MAL SOLO ESTOY FUERA DE LUGAR

--------------------------------------------------
-------------------------------------------------
-8>10>8p-6-8---8>10>8p-6--------------------------
-------------------------8------------------------
-------------------------------------------------
--------------------------------------------------
PUEDES HACER ESO O DARLE OTRA VUELTA CON G# D# Bb

QUE TODOS SOMO UNO......

REGRESAS AL RIFF EN Bb

HASTA.....
  D#
AVECES ME CONFUNO YO ME PUEDO EQUIVOCAR
     G#                   D#            Bb
PERO NO ESTOY MAL SOLO ESTOY FUERA DE LUGAR
     G#                        D#           Bb
YO SE QUE NO ESTOY MAL SOLO ESTOY FUERA DE LUGAR

G#  D#

F#             C#          G#   D#
ALGUIEN QUE ME DIGA POR DONDE
F#          C#      G#   D#
DONDE TODO SEA NORMAL
F#             C#
Y EN EL LADO OPUESTO
F
TODO ME PARECE INCREIBLE
D#
AHORA SE QUE NADA ES IMPOSIBLE

Bb
----------------------------------
----------------------------------
--3-3-x---3-x---3-----------------  X4
--3-3-x---3-x---3-----------------
--1-1-x-4-1-x-4-1-----------------
-------------------4-en esta nota jalas la cuerda para que suba medio tono

D# D# G# D# Bb

Bb
----------------------------------
----------------------------------
--3-3-x---3-x---3----------------- X4
--3-3-x---3-x---3-----------------
--1-1-x-4-1-x-4-1-----------------
-------------------4-en esta nota jalas la cuerda para que suba medio tono
F#             C#        G#    D#
ALGUIEN QUE ME DIGA POR DONDE
F#          C#     G#  D#
DONDE TODO SEA NORMAL
F#             C#
Y EN EL LADO OPUESTO
F
TODO ME PARECE INCREIBLE
   D#
AHORA SE QUE NADA ES IMPOSIBLE

DIME QUE NO ENTIENDES..............

REGRESAS AL RIFF EN Bb

AVECES ME CONFUNDO................

           F#               D#             Bb
FUERA DE LUGAR  FUERA DE LUGAR  FUERA DE LUGAR

            
            
Suggest correction
Creating personal tab
Creating personal tab
You can edit any tab online and save it as your Personal.

You can edit, replace or remove any tab part or add personal notes – all changes will be seen only by you.

Personal tabs can be accessed anytime from any device, even offline.
Learn more »
Give kudos to tab author, rate the tab!
1 2 3 4 5
comments
print report bad tab
guest
Wanna post a correction for this tab? Suggest correction