Oops, an error
Loading. Please wait.

An Evening With El Diablo Bass Tab

version 4
version 4

Whole song

Interactive

2,556 views 1 this week
1 commentread comment
1 2 3 4 5
please rate
add to favorites
launch autoscroll
font size
0
reset
guitar tuner
Autoscroll
slow
fast
+/-
esc
set tempo
stop
Help us to improve Ultimate-Guitar.com Take our survey!
×
Author
#----------------------------------PLEASE NOTE---------------------------------#
#This file is the author's own work and represents their interpretation of the #
#song. You may only use this file for private study, scholarship, or research. #
#------------------------------------------------------------------------------##

                      AN EVENING WITH EL DIABLO (Bassline)
                             As recorded by Chevelle
                    (From the 2002 Album WONDER WHAT'S NEXT)

Words by Pete Loeffler

Music by Chevelle
Transcribed by thedarkwin
Bass (B F# B E) - 'Joe Loeffler'

 Intro
  Moderate Rock Q=94
 4/4
  Gtr I
  E S S S E E S S S S E S   E S S S E E S S S S E S
|-------------------------|-------------------------|
|-------------------------|-------------------------|
|---------------------7-7-|---------------------7-7-|
|-4-4-4-4-4-4-4-4-4-4-----|-4-4-4-4-4-4-4-4-4-4-----|


  E S S S E E S S S S E S   E S S S E E S S S S E S
|-------------------------|-------------------------||
|-------------------------|-------------------------||
|---------------------6-6-|---------------------6-6-||
|-4-4-4-4-4-4-4-4-4-4-----|-4-4-4-4-4-4-4-4-4-4-----||


   Verse
    E S S S E E S S S S E S   E S S S E E S S S S E S
||--------------------------|-------------------------|
||o-------------------------|-------------------------|
||o---------------------7-7-|---------------------7-7-|
||--4-4-4-4-4-4-4-4-4-4-----|-4-4-4-4-4-4-4-4-4-4-----|


  E S S S E E S S S S E S   E S S S E E S S S S E S  4x
|-------------------------|--------------------------||
|-------------------------|-------------------------o||
|---------------------6-6-|---------------------6-6-o||
|-4-4-4-4-4-4-4-4-4-4-----|-4-4-4-4-4-4-4-4-4-4------||


   Post-Verse
    Q  E S S S S S S S e.   Q  E S S S S S S S e.
||------------------------|------------------------||
||o-----------------------|-----------------------o||
||o-----------------------|-----------------------o||
||--4--4-4-4-4-4-4-4-5-0--|-4--4-4-4-4-4-4-4-5-0---||


   Verse
    E S S S E E S S S S E S   E S S S E E S S S S E S
||--------------------------|-------------------------|
||o-------------------------|-------------------------|
||o---------------------7-7-|---------------------7-7-|
||--4-4-4-4-4-4-4-4-4-4-----|-4-4-4-4-4-4-4-4-4-4-----|


  E S S S E E S S S S E S   E S S S E E S S S S E S  4x
|-------------------------|--------------------------||
|-------------------------|-------------------------o||
|---------------------6-6-|---------------------6-6-o||
|-4-4-4-4-4-4-4-4-4-4-----|-4-4-4-4-4-4-4-4-4-4------||


   Post-Verse
    Q  E S S S S S S S e.   Q  E S S S S S S S e.  4x
||------------------------|------------------------||
||o-----------------------|-----------------------o||
||o-----------------------|-----------------------o||
||--4--4-4-4-4-4-4-4-5-0--|-4--4-4-4-4-4-4-4-5-0---||


   Chorus
    E S S S E E S S S S E S   E S S S E E S S S S E S
||--------------------------|-------------------------|
||o-------------------------|-------------------------|
||o---------------------7-7-|---------------------7-7-|
||--4-4-4-4-4-4-4-4-4-4-----|-4-4-4-4-4-4-4-4-4-4-----|


  E S S S E E S S S S E S   E S S S E E S S S S E S
|-------------------------|--------------------------||
|-------------------------|-------------------------o||
|---------------------6-6-|---------------------6-6-o||
|-4-4-4-4-4-4-4-4-4-4-----|-4-4-4-4-4-4-4-4-4-4------||


   Verse
    E S S S E E S S S S E S   E S S S E E S S S S E S
||--------------------------|-------------------------|
||o-------------------------|-------------------------|
||o---------------------7-7-|---------------------7-7-|
||--4-4-4-4-4-4-4-4-4-4-----|-4-4-4-4-4-4-4-4-4-4-----|


  E S S S E E S S S S E S   E S S S E E S S S S E S  4x
|-------------------------|--------------------------||
|-------------------------|-------------------------o||
|---------------------6-6-|---------------------6-6-o||
|-4-4-4-4-4-4-4-4-4-4-----|-4-4-4-4-4-4-4-4-4-4------||


   Post-Verse
    Q  E S S S S S S S e.   Q  E S S S S S S S e.  4x
||------------------------|------------------------||
||o-----------------------|-----------------------o||
||o-----------------------|-----------------------o||
||--4--4-4-4-4-4-4-4-5-0--|-4--4-4-4-4-4-4-4-5-0---||


 Guitar Break
  E S S S E E S S S S E S   E S S S E E S S S S E S
|-------------------------|-------------------------|
|-------------------------|-------------------------|
|---------------------7-7-|---------------------7-7-|
|-4-4-4-4-4-4-4-4-4-4-----|-4-4-4-4-4-4-4-4-4-4-----|


  E S S S E E S S S S E S   E S S S E E S S S S E S
|-------------------------|-------------------------||
|-------------------------|-------------------------||
|---------------------6-6-|---------------------6-6-||
|-4-4-4-4-4-4-4-4-4-4-----|-4-4-4-4-4-4-4-4-4-4-----||


   Chorus
    E S S S E E S S S S E S   E S S S E E S S S S E S
||--------------------------|-------------------------|
||o-------------------------|-------------------------|
||o---------------------7-7-|---------------------7-7-|
||--4-4-4-4-4-4-4-4-4-4-----|-4-4-4-4-4-4-4-4-4-4-----|


  E S S S E E S S S S E S   E S S S E E S S S S E S  7x
|-------------------------|--------------------------||
|-------------------------|-------------------------o||
|---------------------6-6-|---------------------6-6-o||
|-4-4-4-4-4-4-4-4-4-4-----|-4-4-4-4-4-4-4-4-4-4------||


   Outro
    E S S S E E S S S S E S   E S S S E E S S S S E S
||--------------------------|-------------------------|
||o-------------------------|-------------------------|
||o---------------------7-7-|---------------------7-7-|
||--4-4-4-4-4-4-4-4-4-4-----|-4-4-4-4-4-4-4-4-4-4-----|


  E S S S E E S S S S E S   E S S S E E S S S S E S  6x S S E Q  H
|-------------------------|--------------------------||---------------*|
|-------------------------|-------------------------o||---------------*|
|---------------------6-6-|---------------------6-6-o||---------------*|
|-4-4-4-4-4-4-4-4-4-4-----|-4-4-4-4-4-4-4-4-4-4------||-4-4-----------*|


Duration Legend
---------------
W - whole; H - half; Q - quarter; E - 8th; S - 16th; T - 32nd; X - 64th; a - acciaccatura
+ - note tied to previous; . - note dotted; .. - note double dotted
Uncapitalized letters represent notes that are staccato (1/2 duration)
Irregular groupings are notated above the duration line
Duration letters will always appear directly above the note/fret number it represents the
duration for.  Duration letters with no fret number below them represent rests.  Multi-
bar rests are notated in the form Wxn, where n is the number of bars to rest for.  Low
melody durations appear below the staff


Misc Legend
-----------
 |  - bar
||  - double bar
||o - repeat start
o|| - repeat end
*|  - double bar (ending)
 :  - bar (freetime)
 $  - Segno
 &  - Coda
Tempo markers -  = BPM(8/16=s8/s16), where s8 = swing 8ths, s16 = swing 16ths


***************************************************************************************
* Generated using Power Tab Editor by Brad Larsen - http://powertab.guitarnetwork.org *
***************************************************************************************
Suggest correction
Give kudos to tab author, rate the tab!
1 2 3 4 5
comments
print report bad tab
1 comment total.
0 reply
rob_is_death 10 wrote on April 5 2009, 01:03 am

nice tab ^^

guest
You may want to rate the tab now too:
select rating
Wanna post a correction for this tab? Suggest correction