Oops, an error
Loading. Please wait.

Antisaint Bass Tab

version 2
version 2

Whole song

Interactive

3,430 views 1 this week
no commentswrite comment
1 2 3 4 5
excellent!
x 7
add to favorites
launch autoscroll
font size
0
reset
guitar tuner
Autoscroll
slow
fast
+/-
esc
set tempo
stop
Help us to improve Ultimate-Guitar.com Take our survey!
×
Tuning
B F# B E G# C#
Antisaint
Chevelle
Vena Sera

Tab by Zack Iszard
=-=-=-=-=-=-=-=-=-=-=-=-=-=-=-=-=-=-=-=-=-=-=-=-=-=-=-=-=-=-=-=-=-=-=-=-=-=

Bass tuning: B F# B E (drop B)

=-=-=-=-=-=-=-=-=-=-=-=-=-=-=-=-=-=-=-=-=-=-=-=-=-=-=-=-=-=-=-=-=-=-=-=-=-=

This tab is 98% correct (if not more), and the tuning is correct. I noticed that the bass part during the 

verse and interlude were more complex than meets the ear. Awesome song with amazing bass part. Love 

Chevelle's new bassist.

Note also: doubled up guitars in verses: one plays the 2-note chords, and the other plays bass part an 

octave up. The main guitar riff, pre-verse, and interlude are an octave up from the bass.

=-=-=-=-=-=-=-=-=-=-=-=-=-=-=-=-=-=-=-=-=-=-=-=-=-=-=-=-=-=-=-=-=-=-=-=-=-=

Key:
/ or \ = slide up or down
__ = hold note
X = mute previous note
h or p = hammer on or pull off
(---) = play quietly

=-=-=-=-=-=-=-=-=-=-=-=-=-=-=-=-=-=-=-=-=-=-=-=-=-=-=-=-=-=-=-=-=-=-=-=-=-=

Intro:
 E|---------------------------------|-------------------------------|
 B|---------------------------------|-------------------------------|
F#|---------------------------------|-------------------------------|
 B|-4-4-4-4-4-4-4-4-4-4-4-4-4-4-4-4-|-4-4-4-4-4-4-4-4-4-4-4-4-4-4//-|

 E|------------------------------------------|
 B|------------------------------------------|
F#|------------------------------------------|
 B|-16-16-16-16-16-16-16-16-16-16-16-16-16\\-|

 E|------------------------------------|
 B|------------------------------------|
F#|------------------------------------|
 B|-4-4-4-4-4-4-4-4X--(7-9-10-9-7-5)---|


Main Riff (x2):
 E|----------------------------------|----------------------------------|
 B|----------------------------------|----------------------------------|
F#|----------------------------------|----------------------------------|
 B|-4-4X--10-9-0-4-4X--10-9-7-4-4-4X-|-4-4X--10-9-0-4-4X--10-9-0-7-7-7__|


Pre-Verse (x4):
 E|-------------------------------------|
 B|-------------------------------------|
F#|---------12-10-----------------------|
 B|-12-10-0-------0-10-9__________-9-10-|

Verse (x7):
 E|------------------------------------------|
 B|------------------------------------------|
F#|---------12-10-----------------------9-10-|
 B|-12-10-0-------0-10-9-0-12-10-0-9-10------|

  end with:
 E|---------------------------------------|
 B|---------------------------------------|
F#|---------12-10-------------------------|
 B|-12-10-0-------0-10-9X--7-9-10-9-7-5X--|

--Main Riff (x2)

--Pre-Verse (x2)

--Verse (x7) +end

--Main Riff (x4)

Interlude:
 E|-------------------------|-------------------------|
 B|-------------------------|-------------------------|
F#|-------------------------|-------------------------|
 B|-4-4-4__-4-4-4__-4-4-4-4-|-4-4-4__-4-4-4__-4-4-4-6-|

 E|---------------------------|--------------------------------------|
 B|---------------------------|--------------------------------------|
F#|---------------------------|--------------------------------------|
 B|-6-0-0X--0-0-0X--0-0-0////-|-12-12-12X--12-12-12X--14-12-12___\\\-|

 E|-------------------------|-------------------------|
 B|-------------------------|-------------------------|
F#|-------------------------|-------------------------|
 B|-4-4-4__-4-4-4__-4-4-4-4-|-4-4-4__-4-4-4__-4-7-7-7-|

 E|---------------------------|--------------------------------------|
 B|---------------------------|--------------------------------------|
F#|---------------------------|--------------------------------------|
 B|-0-0-0X--0-0-0X--0-0-0////-|-12-12-12X--12-12-12X--14-12-12___\\\-|

 E|-------------------------|-------------------------|
 B|-------------------------|-------------------------|
F#|-------------------------|-------------------------|
 B|-4-4-4__-4-4-4__-4-4-4-4-|-4-4-4__-4-4-4__-4-7-7-7-|

 E|---------------------------|--------------------------------------|
 B|---------------------------|--------------------------------------|
F#|---------------------------|--------------------------------------|
 B|-7-0-0X--0-0-0X--0-0-0////-|-12-12-12X--12-12-12X--14-12-12___\\\-|

 E|---------------------------|--------------------------------------|
 B|---------------------------|--------------------------------------|
F#|---------------------------|-9--9--9----9--9--9----9--12-12___\\\-|
 B|-4-4-4__-4-4-4__-4-4-4////-|--------------------------------------|

 E|-------------------------|-------------------------------------|
 B|-------------------------|-------------------------------------|
F#|-------------------------|-------------------------------------|
 B|-0-0-0X--0-0-0X--0-0-0-0-|-12-0-0-12-0-0-12-0-0-0-0-0-0h2-2___-|

--Intro

--Main Riff (3x)

End song with:
 E|----------------------------------|
 B|----------------------------------|
F#|----------------------------------|
 B|-4-4X--10-9-0-4-4X--10-9-7-4-4-4X-|

 E|----------------------------------|------|------|------|
 B|----------------------------------|------|------|------|
F#|----------------------------------|------|------|------|
 B|-4-4X--10-9-0-4-4X--10X9X0X7_____-|-____-|-____-|-____-|
Suggest correction
What's this?
You can suggest a correction to this tab. Community and Mods will review your correction and vote to approve or reject it.
comments
print report bad tab
guest
You may want to rate the tab now too:
select rating
Please do not post tabs as comments. Select "correction" instead!