Oops, an error
Loading. Please wait.

Bend The Bracket Tab

version 1
version 1

Interactive

14,138 views 6 this week
7 commentsread comments
1 2 3 4 5
accurate
x 7
add to favorites
launch autoscroll
font size
0
reset
how to read this tab
guitar tuner
Autoscroll
slow
fast
+/-
esc
set tempo
stop
Help us to improve Ultimate-Guitar.com Take our survey!
×
Author
This is an easy song... u will notice Pete likes to play on different parts of the
strings either near the bridge or over the hole
This song is tuned standard tuning down a half step.
Eb Ab Db Bb Gb Eb

* = Strum

Intro x2
----------------------|
----------------------|
-9*-------------------|
-9-------9-7-----9-7--|
-7--------------------|
-----8-8-----8-8------|

Verse x4

---------------|
---------------|
-9*-/12-12--5*-|
-9--/12-12--5--|
-7--/10-10--3--|
---------------|

Chorus x2 (on second time strum once and hold last A chord)

--------------|
--------------|
-10*-7*-5*-7*-|
-10--7--5--7--|
-8---5--3--5--|
--------------|

?? Riff (This is a riff he puts in after the second chorus,  its mostly just the intro 
more to it.)

----------------------------------|
----------------------------------|
-9*-------------------7*-5*-4*----|
-9-------9-7-----9-7--7--5--4—-4--|
-7--------------------5--3--2—-4--|
-----8-8-----8-8---------------2--|

Song Structure
Intro x2
Verse x4
Chorus x2
Intro x2
Verse x2
Chorus x2
?? Riff x4
Verse x4
Chorus x4
Intro x4 until end.
tabbed my HavocDemon questions or comments e-mail them to: humanclay117@yahoo.com
Suggest correction
comments
print report bad tab
7 comments total. Showing first comments.
-1 reply
nirvana666 20 wrote on January 2 2005, 12:00 am

GREAT TAB DUDE! FINALLY SOMEONE GETS THE TUNING RIGHT ON A F U C K I N G SONG!!!!! GOOD WORK!!!!!!

-1 reply
A-T-L 10 wrote on April 18 2005, 12:00 am

Great tab, the only thing I would change is to do this for the intro riff:
------------0-----
-9*---9---9-9----
-7----------------
----8---8---------

*=strumming (like you have it)
Try it this way and see if you like it better.

-1 reply
ph_ryeman_2004 30 wrote on April 20 2005, 12:00 am

I cant figure out how the intro suppose to sound right with the way he has it tabbed

----------------------|
----------------------|
-9*-------------------|
-9-------9-7-----9-7--|
-7--------------------|
-----8-8-----8-8------|

Beats the hell out of me, but the correction above looks better, kinda like the way i tabbed it just a fret higher

guest
You may want to rate the tab now too:
select rating
Please do not post tabs as comments. Select "correction" instead!