Oops, an error
Loading. Please wait.

Bend The Bracket Ukulele Chords

version 1
version 1

Whole song

Interactive

58 views 1 this week
no commentswrite comment
1 2 3 4 5
please rate
add to favorites
launch autoscroll
font size
0
reset
transpose
0
reset
- display chords -
guitar tuner
Tab Pro tools
  • play this tab
  • loop segment
  • change instrument
  • show fretboard
  • metronome
Autoscroll
slow
fast
+/-
esc
set tempo
stop
Chevelle - Bend the Bracket
Track #11 - This Type of Thinking (Could Do Us In)

Tuning
B F# B E G# C#

Acoustic Guitar 1 - Pete Loeffler

NOTE:  Based from the tab book, but the book is more intricate than this.
       This is the basic idea!  Such a sweet song - and EASY to play!!

INTRO
C#|------------------------------------|
G#|----------------0---------0-----0---|
E |-6---------6--6------6--6-----6--6--|
B |-4-------0--0------0---0----0-------|
F#|-4-(14x)----------------------------|
B |-4----------------------------------|

C#|------------------------------------|
G#|----------------0---------0---------|
E |-6---------6--6------6--6-----------|
B |-4-------0--0------0---0------------|
F#|-4-(14x)----------------------------|
B |-4----------------------------------|

VERSE - 4x
C#|-------------------------------|
G#|-----------------3-------------|
E |-6-------9-------2-------------|
B |-4-------7-------0-------------|
F#|-4-(11x)-7-(1x)-(0)-(14x)------|
B |-4-------7---------------------|

NOTE:  On 4th time thru the VERSE, the last chord in the VERSE, Pete hits
        the open E string a few times.

CHORUS
C#|------------------(0)---------------------------------(0)--------------|
G#|-8--------5--------3--------5--------8--------5--------3--------5------|
E |-7--------4--------2--------4--------7--------4--------2--------4------|
B |-5--------2--------0--------2--------5--------2--------0--------2------|
F#|-5-(14x)--2-(14x)-(0)-(14x)-2-(14x)--5-(14x)--2-(14x)-(0)-(14x)-2-(1x)-|
B |-5--------2-----------------2--------5--------2-----------------2------|

INTRO - 1x
VERSE - 4x
CHORUS - 1x

INTERLUDE - 3x
C#|-------------------------------------------------------------|
G#|----------------0---------0-----0-(0)------------------------|
E |-6---------6--6------6--6-----6--6-4--4p2-2-2-2-2------------|
B |-4-------0--0------0---0----0------2--0---0-0-0-0-6-6--------|
F#|-4-(14x)---------------------------2--------------4-4-6-6-6--|
B |-4---------------------------------2------------------6-6-6--|

This part played once
C#|-------------------------------------------------------------|
G#|----------------0---------0-----0---(0)----------------------|
E |-6---------6--6------6--6-----6--6---4--4p2-2-2-2-2----------|
B |-4-------0--0------0---0----0--------2--0---0-0-0-0-6-6------|
F#|-4-(14x)-----------------------------2--------------4-4-6----|
B |-4-----------------------------------2------------------6----|

C#|---------------------------------------------------|
G#|---------------------------------------------------|
E |-4p2-2-2-2-2---------------------------------------|
B |-0---0-0-0-0-6-6-----------------------------------|
F#|-------------4-4-6-6-6-----------------------------|
B |-----------------6-6-6-----------------------------|

VERSE
CHORUS

OUTRO - 4x
C#|------------------------------------|
G#|----------------0---------0-----0---|
E |-6---------6--6------6--6-----6--6--|
B |-4-------0--0------0---0----0-------|
F#|-4-(14x)----------------------------|
B |-4----------------------------------|
C#|------------------------------------|
G#|----------------0---------0---------|
E |-6---------6--6------6--6-----------|
B |-4-------0--0------0---0------------|
F#|-4-(14x)----------------------------|
B |-4----------------------------------|

Fades out................
comments
We did not receive enough feedback on this tab! Please rate:
print report bad tab
1 2 3 4 5
I want to post or [tab]
guest
You may want to rate the tab now too:
select rating
Please do not post tabs as comments. Select "correction" instead!