Oops, an error
Loading. Please wait.

Bend The Bracket Tab

version 6
version 6

Interactive

1,216 views 1 this week
1 commentread comment
1 2 3 4 5
worth learning
x 3
add to favorites
launch autoscroll
font size
0
reset
how to read this tab
guitar tuner
Autoscroll
slow
fast
+/-
esc
set tempo
stop
Help us to improve Ultimate-Guitar.com Take our survey!
×
Author
Difficulty
novice
Hey, this was my first tab. This is how I like to play it.


Intro
|-------------------------------------------------|
|-------------------------------------------------|
|--8----------------------------------------------|
|--8--------------6---------------6----------6----| x2
|--6----------------------------------------------|
|--6---6h7--6h7--------6h7--6h7--------6h7--------|


Verse 1
|---------------|
|---------------|
|--8-/--11---4--|
|--8-/--11---4--| x4
|--6-/--9----2--|
|--6-/--9----2--|


Chorus
|-----------------|
|-----------------|
|--9----6---4--6--|
|--9----6---4--6--|  x2
|--7----4---2--4--|
|--7----4---2-----|


|-------------------------------------------------|
|-------------------------------------------------|
|--8----------------------------------------------|
|--8--------------6---------------6----------6----| x2
|--6----------------------------------------------|
|--6---6-7--6-7--------6-7--6-7--------6-7--------|


Verse 2
|---------------|
|---------------|
|--8-/--11---4--|
|--8-/--11---4--| x4
|--6-/--9----2--|
|--6-/--9----2--|


Chorus
|-----------------|
|-----------------|
|--9----6---4--6--|
|--9----6---4--6--|  x2
|--7----4---2--4--|
|--7----4---2-----|


Bridge
|--------------------------------------------------------------|
|--------------------------------------------------------------|
|--8---------------------------------------------6-------------|
|--8--------------6---------------6--------6-----6--9--8-----3-|
|--6---------------------------------------------4--9--6-----3-|  x4
|--6---6-7--6-7--------6-7--6-7------6-7---------4--7--6--0--1-|


Verse 3
|---------------|
|---------------|
|--8-/--11---4--|
|--8-/--11---4--| x4
|--6-/--9----2--|
|--6-/--9----2--|


Chorus
|-----------------|
|-----------------|
|--9----6---4--6--|
|--9----6---4--6--|  x2
|--7----4---2--4--|
|--7----4---2-----|


Outro
|-------------------------------------------------|
|-------------------------------------------------|
|--8----------------------------------------------|
|--8--------------6---------------6----------6----| x4 (fade out)
|--6----------------------------------------------|
|--6---6-7--6-7--------6-7--6-7--------6-7--------|
Suggest correction
Give kudos to tab author, rate the tab!
1 2 3 4 5
comments
print report bad tab
1 comment total.
0 reply
lyingfromyou 144 wrote on June 30 2006, 11:18 am

As odd as it seems for an acoustic song, this song is actually in drop B.

guest
You may want to rate the tab now too:
select rating
Wanna post a correction for this tab? Suggest correction