Oops, an error
Loading. Please wait.

Bend The Bracket Tab

version 7
version 7

Interactive

545 views 1 this week
no commentswrite comment
1 2 3 4 5
3 more votes to show rating
add to favorites
launch autoscroll
font size
0
reset
how to read this tab
guitar tuner
Autoscroll
slow
fast
+/-
esc
set tempo
stop
Help us to improve Ultimate-Guitar.com Take our survey!
×
Author
The Song  does not go exactly like this but it works.

Eb5 is a power chord |-6-8-8--------------------|
Gb5 is a power chord |-9-11-11------------------|
E5 is a power chord |-7-9-9---------------------|
Db5 is a power chord |-4-6-6--------------------|
Cb5 is a power chord |-2-4-4---| or |7-9-9------|

Intro (2x)
|--------------------------------------|
|--------------------------------------|
|-8------------------------------------|
|-8(14x)---8--8-6----8--8-6-----8-6-8--|
|-6------------------------------------|
|---------7--7------7--7-------7-------|

Eb5                      Gb5 Cb5
  So the water's thickening   his collar's pulled
Eb5            Gb5  Cb5
  begin to be aware...It's on
Eb5                     Gb5 Cb5
  that he needs to focus    beyond that man
Eb5                Gb5 Cb5
  he brings a world of pain
Cause

[Chorus]
E5         Db5     Cb5       Db5
  The war is on, too weak to move
E5        Db5    Cb5     Db5
  Call it off, sorry refused

[Intro again](2x)

Eb5                   Gb5 Cb5
  So we bend the bracket,  shove it down
Eb5                   Gb5 Cb5
  anything to make it fit...it's on
Eb5              Gb5 Cb5
  and being foolish    won't cover up
Eb5             Gb5 Cb5
  Exposing them as fakes

[Chorus]

Interlude (4x)
|--------------------------------------||-----------------------------|
|--------------------------------------||-----------------------------|
|-8------------------------------------||-6---------------------------|
|-8(14x)---8--8-6----8--8-6-----8-6-8--||-6(14x)--9--9-----8-----2----|
|-6------------------------------------||-4-------9--9-x-x-8-x-x-2----|
|---------7--7------7--7-------7-------||---------7--7-x-x-6-x-x-1----|

Eb5                 Gb5 Cb5
  So boredom captured    another fool
Eb5                 Gb5 Cb5
  Shredding him to bit...it's on
Eb5                      Gb5 Cb5
  And the more we tense up, avoiding pain
Eb5                Gb5 Cb5
  You'll never learn a thing

Outro is the same as Intro
Suggest correction
Give kudos to tab author, rate the tab!
1 2 3 4 5
comments
print report bad tab
guest
You may want to rate the tab now too:
select rating
Wanna post a correction for this tab? Suggest correction