Oops, an error
Loading. Please wait.

Choking Game Tab

version 1
version 1

Whole song

Interactive

1,709 views 9 this week
no commentswrite comment
1 2 3 4 5
excellent!
x 3
add to favorites
launch autoscroll
font size
0
reset
how to read this tab
guitar tuner
Tab Pro tools
  • play this tab
  • loop segment
  • change instrument
  • show fretboard
  • metronome
×
Best way to learn
"Choking Game"
Autoscroll
slow
fast
+/-
esc
set tempo
stop
Contributor
Difficulty
Tuning
novice
C G C F A D
INTRO
D|----------------------------------------------------------------------|
A|-----10------11------10------11------10------11------10------11-------|
F|-12---(16x)---(16x)---(16x)---(16x)---(16x)---(16x)---(16x)---(16x)---|
C|-10-------------------------------------------------------------------|
G|-8--------------------------------------------------------------------|
C|----------------------------------------------------------------------|
   ^ - fades in with this chord

VERSE/CHORUS
Part 1
D|-------------------------------------------------------------------------|
A|-------------------------------------------------------------------------|
F|-12-------12-------12-------12-------12-------12-------12-------12-------|
C|-12-(16x)-10-(16x)-12-(16x)-10-(16x)-12-(16x)-10-(16x)-12-(16x)-10-(16x)-|
G|-10-------8--------10-------8--------10-------8--------10-------8--------|
C|-------------------------------------------------------------------------|

Verse
Part 2 - with wah
D|--------------------------------------------|
A|--------------------------------------------|
F|--------------------------------------------|
C|--------------------------------------------|
G|--------------------------------------------|
C|-5-6-5--565-5-6-5-565-5-6-5-565-5-6-5-565---|

Play INTRO 1x
VERSE/CHORUS Part 1 1x
VERSE/CHORUS Part 2 1x - pick scrapes are played by a 2nd guitar

BRIDGE - with wah
Part 1
D|--------------------------------------------------------------------|
A|--------------------------------------------------------------------|
F|------------12---------------13---------------12----------------6---|
C|------------x-(8x)-----------x-(8x)-----------x--(8x)-----------x---|
G|-8----(4x)--10-----8----(4x)-11-----8----(4x)-10------8----(4x)-4---|
C|---6-5---------------6-5--------------6-5---------------6-5---------|

Not adding the strumming pattern here - easy to figure out 
D|--------------------------------------------------------------------|
A|--------------------------------------------------------------------|
F|------------12---------------13------6-7-8-9-101112-13-14-15-16-----|
C|------------x-(8x)-----------x-(8x)--x-x-x-x-x-x-x--x--x--x--x-->>>>|
G|-8----(4x)--10-----8----(4x)-11------4-5-6-7-8-9-10-11-12-13-14-----|
C|---6-5---------------6-5--------------------------------------------|
                                                  keep sliding up - >>

VERSE/CHORUS (slight variation from the previous)
D|-----------------------------------------------------------------------|
A|-----------------------------------------------------------------------|
F|-12-------12---------------10----------------10---------------10-------|
C|-12-(16x)-10-(16x)-8-(16x)-10-(16x)--8-(16x)-10-(16x)-5-(16x)-10-(16x)-|
G|-10-------8--------8-------8---------8-------8--------5-------8--------|
C|-------------------8-----------------8----------------5----------------|

Play INTRO 2x

D|----------------------|
A|----------------------|
F|----------------------|
C|--8--3--10--3--8-7----|
G|--8--3--10--3--8-7----|
C|--8--3--10--3--8-7----|

OUTRO
Part 1
Play VERSE Part 2 1x without the wah
Play VERSE Part 2 1x with the wah

OUTRO
Part 2
D|-------------------------------------------------------------------------|
A|-------------------------------------------------------------------------|
F|-------------------------------------------------------------------------|
C|-5--6-5--8-5-6-5--6-5--8-5-6-5--6-5--8-5-6-5--6-5--8-5-6-5--6-5--8-5-6-5-|
G|-5--6-5--8-5-6-5--6-5--8-5-6-5--6-5--8-5-6-5--6-5--8-5-6-5--6-5--8-5-6-5-|
C|-5--6-5--8-5-6-5--6-5--8-5-6-5--6-5--8-5-6-5--6-5--8-5-6-5--6-5--8-5-6-5-|

D|------------------------------------------------------------|
A|------------------------------------------------------------|
F|------------------------------------------------------------|
C|-6-5--8-5-6-5--6-5--8-5-6-5--6-5--8-5-6-8--3--10--3--8-7--0-|
G|-6-5--8-5-6-5--6-5--8-5-6-5--6-5--8-5-6-8--3--10--3--8-7--0-|
C|-6-5--8-5-6-5--6-5--8-5-6-5--6-5--8-5-6-8--3--10--3--8-7--0-|
comments
We did not receive enough feedback on this tab! Please rate:
print report bad tab
1 2 3 4 5
I want to post or [tab]
guest
You may want to rate the tab now too:
select rating
Please do not post tabs as comments. Select "correction" instead!