Oops, an error
Loading. Please wait.

Choking Game Tab

version 2
version 2

Whole song

Interactive

1,123 views 3 this week
no commentswrite comment
1 2 3 4 5
excellent!
x 3
add to favorites
launch autoscroll
font size
0
reset
how to read this tab
guitar tuner
Tab Pro tools
  • play this tab
  • loop segment
  • change instrument
  • show fretboard
  • metronome
×
Best way to learn
"Choking Game"
Autoscroll
slow
fast
+/-
esc
set tempo
stop
Contributor
Difficulty
Tuning
novice
C G C F A D
Chevelle: Choking Game

Transcribed by: mysticguitar77

YouTube Channel: MysticGuitar77

Date last modified: April 2, 2014

Tuning: Drop C (C,G,C,F,A,D)

Opening (volume swell, strum and gradually increase the volume)
D|--------------------|
A|--------------------|
F|-12-----------------|
C|-10-----------------|
G|-8------------------|
C|--------------------|

Riff 1   "Like a rush..."
D|-------------------------------------------------|
A|-10-10-10-10-10-10-10-10-10-10-10-10-10-10-10-10-|
F|-------------------------------------------------|
C|-------------------------------------------------|
G|-------------------------------------------------|
C|-------------------------------------------------|

D|-------------------------------------|
A|-11-11-11-11-11-11-11-11-11-11-11-11-|
F|-------------------------------------|
C|-------------------------------------|
G|-------------------------------------|
C|-------------------------------------|

Play Riff 1 x4   "Feel the rush..."

Riff 2   "Laws young son..."
D|-------------------------------------------------|
A|-------------------------------------------------|
F|-12-12-12-12-12-12-12-12-12-12-12-12-12-12-12-12-|
C|-12-12-12-12-12-12-12-12-12-12-12-12-12-12-12-12-| x2
G|-10-10-10-10-10-10-10-10-10-10-10-10-10-10-10-10-|
C|-------------------------------------------------|

D|-------------------------------------------------|
A|-------------------------------------------------|
F|-12-12-12-12-12-12-12-12-12-12-12-12-12-12-12-12-|
C|-10-10-10-10-10-10-10-10-10-10-10-10-10-10-10-10-| x2
G|-8--8--8--8--8--8--8--8--8--8--8--8--8--8--8--8--|
C|-------------------------------------------------|

Play Riff 2 x4   "Pushing out..."

Fill 1 (Guitar 1)
D|-----------------2*3*4*5*6*7*8*9*10*11*12*-|
A|-------------------------------------------|
F|-12\---------------------------------------|
C|-12\---------------------------------------|
G|-10\---------------------------------------|
C|-------------------------------------------|

Note: Those '*' are natural harmonics. Start at around the 2nd fret and
      gradually slide your finger up hitting them along the way.

Fill 1 (Guitar 2 w/ wah)
D|---------------------|
A|---------------------|
F|---------------------|
C|---------------------| x4
G|---------------------|
C|-5--5-6-5-5--5-6-5-6-|

Play Riff 1 x4   "Feel the rush..."
Play Riff 2 x4   "We could not learn at all..."
Play Fill 1 x8   (Guitar 2)

Fill 1 (Guitar 1 alteration)
D|-----------------------------------------------------------------------|
A|-----------------------------------------------------------------------|
F|-12\-------------------------------------------------------------------|
C|-12\---------x-x--x-x--x-x--x-x-x-x-x-x-x-x-x--x-x--x-x--x-x-x-x-x-x-x-|
G|-10\---------x-x--x-x--x-x--x-x-x-x-x-x-x-x-x--x-x--x-x--x-x-x-x-x-x-x-|
C|-------------x-x--x-x--x-x--x-x-x-x-x-x-x-x-x--x-x--x-x--x-x-x-x-x-x-x-|

D|----------------------------------2*3*4*5*6*7*8*9*19*11*12*-|
A|----------------------------------2*3*4*5*6*7*8*9*10*11*12*-|
F|----------------------------------2*3*4*5*6*7*8*9*10*11*12*-|
C|-x-x--x-x--x-x--x-x-x-x-x-x-x-x-x---------------------------|
G|-x-x--x-x--x-x--x-x-x-x-x-x-x-x-x---------------------------|
C|-x-x--x-x--x-x--x-x-x-x-x-x-x-x-x---------------------------|

Riff 3   "Feel the rush..."
D|--------------------------------------------------|
A|--------------------------------------------------|
F|-------------------------/12-12-12-12-12-12-12-12-|
C|--------------------------x--x--x--x--x--x--x--x--|
G|-8-----8-----8-----8-----/10-10-10-10-10-10-10-10-|
C|---6-5---6-5---6-5---6-5--------------------------|

D|--------------------------------------------------|
A|--------------------------------------------------|
F|-------------------------/13-13-13-13-13-13-13-13-|
C|--------------------------x--x--x--x--x--x--x--x--|
G|-8-----8-----8-----8-----/11-11-11-11-11-11-11-11-|
C|---6-5---6-5---6-5---6-5--------------------------|

D|--------------------------------------------------|
A|--------------------------------------------------|
F|-------------------------/12-12-12-12-12-12-12-12-|
C|--------------------------x--x--x--x--x--x--x--x--|
G|-8-----8-----8-----8-----/10-10-10-10-10-10-10-10-|
C|---6-5---6-5---6-5---6-5--------------------------|

D|-----------------------------------------|
A|-----------------------------------------|
F|-------------------------6-6-6-6-6-6-6-6-|
C|-------------------------x-x-x-x-x-x-x-x-|
G|-8-----8-----8-----8-----4-4-4-4-4-4-4-4-|
C|---6-5---6-5---6-5---6-5-----------------|

D|--------------------------------------------------|
A|--------------------------------------------------|
F|-------------------------/12-12-12-12-12-12-12-12-|
C|--------------------------x--x--x--x--x--x--x--x--|
G|-8-----8-----8-----8-----/10-10-10-10-10-10-10-10-|
C|---6-5---6-5---6-5---6-5--------------------------|

D|--------------------------------------------------|
A|--------------------------------------------------|
F|-------------------------/13-13-13-13-13-13-13-13-|
C|--------------------------x--x--x--x--x--x--x--x--|
G|-8-----8-----8-----8-----/11-11-11-11-11-11-11-11-|
C|---6-5---6-5---6-5---6-5--------------------------|

D|-------------------------------------------------------------------|
A|-------------------------------------------------------------------|
F|-6-6-6-6-6-6-6-6-6-6-6-6-6-6-6-6-7-7-7-7-7-7-7-7-7-7-7-7-7-7-7-7-7-|
C|-x-x-x-x-x-x-x-x-x-x-x-x-x-x-x-x-x-x-x-x-x-x-x-x-x-x-x-x-x-x-x-x-x-|
G|-4-4-4-4-4-4-4-4-4-4-4-4-4-4-4-4-5-5-5-5-5-5-5-5-5-5-5-5-5-5-5-5-5-|
C|-------------------------------------------------------------------|

D|---------------------------------------------------------|
A|---------------------------------------------------------|
F|-8-8-8-8-8-8-8-8-9-9-9-9-9-9-9-9-10-10-10-10-11-11-11-11-|
C|-x-x-x-x-x-x-x-x-x-x-x-x-x-x-x-x-x--x--x--x--x--x--x--x--|
G|-6-6-6-6-6-6-6-6-7-7-7-7-7-7-7-7-8--8--8--8--9--9--9--9--|
C|---------------------------------------------------------|

D|----------------------------------------|
A|----------------------------------------|
F|-12-12-13-13-14-14-15-15-16-16-17-17----|
C|-x--x--x--x--x--x--x--x--x--x--x--x--\\-|
G|-10-10-11-11-12-12-13-13-14-14-15-15-\\-|
C|-------------------------------------\\-|

Riff 4   "Violent, circling..."
D|-------------------------------------------------|
A|-------------------------------------------------|
F|-12-12-12-12-12-12-12-12-12-12-12-12-12-12-12-12-|
C|-12-12-12-12-12-12-12-12-12-12-12-12-12-12-12-12-| x2
G|-10-10-10-10-10-10-10-10-10-10-10-10-10-10-10-10-|
C|-------------------------------------------------|

D|-------------------------------------------------|
A|-------------------------------------------------|
F|-12-12-12-12-12-12-12-12-12-12-12-12-12-12-12-12-|
C|-10-10-10-10-10-10-10-10-10-10-10-10-10-10-10-10-| x2
G|-8--8--8--8--8--8--8--8--8--8--8--8--8--8--8--8--|
C|-------------------------------------------------|

D|-------------------------------------------------|
A|-------------------------------------------------|
F|-10-10-10-10-10-10-10-10-10-10-10-10-10-10-10-10-|
C|-8--8--8--8--8--8--8--8--8--8--8--8--8--8--8--8--| x2
G|-8--8--8--8--8--8--8--8--8--8--8--8--8--8--8--8--|
C|-8--8--8--8--8--8--8--8--8--8--8--8--8--8--8--8--|

D|-------------------------------------------------|
A|-------------------------------------------------|
F|-10-10-10-10-10-10-10-10-10-10-10-10-10-10-10-10-|
C|-10-10-10-10-10-10-10-10-10-10-10-10-10-10-10-10-| x2
G|-8--8--8--8--8--8--8--8--8--8--8--8--8--8--8--8--|
C|-------------------------------------------------|

D|-------------------------------------------------|
A|-------------------------------------------------|
F|-10-10-10-10-10-10-10-10-10-10-10-10-10-10-10-10-|
C|-8--8--8--8--8--8--8--8--8--8--8--8--8--8--8--8--| x2
G|-8--8--8--8--8--8--8--8--8--8--8--8--8--8--8--8--|
C|-8--8--8--8--8--8--8--8--8--8--8--8--8--8--8--8--|

D|-------------------------------------------------|
A|-------------------------------------------------|
F|-10-10-10-10-10-10-10-10-10-10-10-10-10-10-10-10-|
C|-10-10-10-10-10-10-10-10-10-10-10-10-10-10-10-10-| x2
G|-8--8--8--8--8--8--8--8--8--8--8--8--8--8--8--8--|
C|-------------------------------------------------|

D|-------------------------------------------------|
A|-------------------------------------------------|
F|-12-12-12-12-12-12-12-12-12-12-12-12-12-12-12-12-|
C|-12-12-12-12-12-12-12-12-12-12-12-12-12-12-12-12-| x2
G|-10-10-10-10-10-10-10-10-10-10-10-10-10-10-10-10-|
C|-------------------------------------------------|

D|-------------------------------------------------|
A|-------------------------------------------------|
F|-10-10-10-10-10-10-10-10-10-10-10-10-10-10-10-10-|
C|-10-10-10-10-10-10-10-10-10-10-10-10-10-10-10-10-| x2
G|-8--8--8--8--8--8--8--8--8--8--8--8--8--8--8--8--|
C|-------------------------------------------------|

Play Riff 1 x8   "Like a rush..."

Riff 5
D|--------------------------|
A|--------------------------|
F|---------------12-12------|
C|-8-8-3-3-10-10-10-10-8--7-|
G|-8-8-3-3-10-10-8--8--8--7-|
C|-8-8-3-3-10-10-------8--7-|

Riff 6
D|---------------------|
A|---------------------|
F|---------------------|
C|---------------------|
G|---------------------|
C|-5--5-6-5-5--5-6-5-6-|

Play Riff 6 x8

Riff 7
D|-------------------|
A|-------------------|
F|-------------------|
C|-5--6-5-5--5-8-5-6-|
G|-5--6-5-5--5-8-5-6-|
C|-5--6-5-5--5-8-5-6-|

Play Riff 7 x8
Play Riff 5 x1

Ending
D|---------------------------------------|
A|---------------------------------------|
F|---------------------------------------|
C|-8-8-3-3-10-10-3-3-8--7--0~------------|
G|-8-8-3-3-10-10-3-3-8--7--0~------------|
C|-8-8-3-3-10-10-3-3-8--7--0~------------|

Enjoy!!



comments
We did not receive enough feedback on this tab! Please rate:
print report bad tab
1 2 3 4 5
I want to post or [tab]
guest
You may want to rate the tab now too:
select rating
Please do not post tabs as comments. Select "correction" instead!