Oops, an error
Loading. Please wait.

Closure Tab

version 8
version 8
358 views 3 this week
no commentswrite comment
1 2 3 4 5
please rate
add to favorites
launch autoscroll
font size
0
reset
how to read this tab
guitar tuner
Tab Pro tools
  • play this tab
  • loop segment
  • change instrument
  • show fretboard
  • metronome
×
Best way to learn
"Closure"
Autoscroll
slow
fast
+/-
esc
set tempo
stop
Contributor
Difficulty
Tuning
novice
B F# B E G# C#
I wrote this tab because the other tabs were harder for me to understand and 
follow along with. Also I'm not completely sure about the tuning, I've heard Drop 
B the most but I think it sounds good in Drop D so I guess it's just what you prefer yourself.
/=slide up
\=slide down
.=palm mute

Intro/Verse (clean x4)

|-------------------------------------------|
|-------------------------------------------|
|-7-x-x-x-x-10-x-x-x-x-9-x-x-x-x-10-9/10\9--|
|-x-x-x-x-x-x--x-x-x-x-x-x-x-x-x-x--x------0|
|-5-x-x-x-x-8--x-x-x-x-7-x-x-x-x-8--7/8-\7-0|
|------------------------------------------0|

I to do this the last time before the Bridge
|----------------------------------------|
|----------------------------------------|
|-7-x-x-x-x-10-x-x-x-x-9-x-x-x-x-12-12-12|
|-x-x-x-x-x-x--x-x-x-x-x-x-x-x-x-x--x--x-|
|-5-x-x-x-x-8--x-x-x-x-7-x-x-x-x-10-10-10|
|----------------------------------------|

Bridge (clean x3)

|-----------------------------------------------|
|-----------------------------------------------|
|-----------------------------------------------|
|-3--3-5-3-0--3--3-5-3-0--5--5-7-5-0--5--5-7-5-0|
|-3--3-5-3-0--3--3-5-3-0--5--5-7-5-0--5--5-7-5-0|
|-3--3-5-3-0--3--3-5-3-0--5--5-7-5-0--5--5-7-5-0|

Chorus (Clean x3)
(At the end of the Chorus, skip the very last "10-8-8" and go straight back to the 
start of it and it does that everytime through the rest of the song)
|----------------------------------------------------------------|
|----------------------------------------------------------------|
|-10-----(10-10-10-10)X2---10-10-10-10-9-------------------------|
|-x------(x--x--x--x-)-----x--x--x--x--x-9-10-----(10-10-10-10)X4|
|-8------(8--8--8--8-)-----8--8--8--8--7-7-8------(8--8--8--8-)--|
|----------------------------------------7-8------(8--8--8--8-)--|

On the 3rd time through only strum the last "(10-8-8)X4" twice then play with distortion

|------------|
|------------|
|------------|
|------------|
|-3-0-----3-0|
|-3-0-----3-0|

Intro/Verse (clean x3)

|-------------------------------------------|
|-------------------------------------------|
|-7-x-x-x-x-10-x-x-x-x-9-x-x-x-x-10-9/10\9--|
|-x-x-x-x-x-x--x-x-x-x-x-x-x-x-x-x--x------0|
|-5-x-x-x-x-8--x-x-x-x-7-x-x-x-x-8--7/8-\7-0|
|------------------------------------------0|

Bridge (Distortion x3)

|-----------------------------------------------|
|-----------------------------------------------|
|-----------------------------------------------|
|-3--3-5-3-0--3--3-5-3-0--5--5-7-5-0--5--5-7-5-0|
|-3--3-5-3-0--3--3-5-3-0--5--5-7-5-0--5--5-7-5-0|
|-3--3-5-3-0--3--3-5-3-0--5--5-7-5-0--5--5-7-5-0|

Chorus (Distortion x4)

|----------------------------------------------------------------|
|----------------------------------------------------------------|
|-10-----(10-10-10-10)X2---10-10-10-10-9-------------------------|
|-x------(x--x--x--x-)-----x--x--x--x--x-9-10-----(10-10-10-10)X4|
|-8------(8--8--8--8-)-----8--8--8--8--7-7-8------(8--8--8--8-)--|
|----------------------------------------7-8------(8--8--8--8-)--|


|------------|
|------------|
|------------|
|------------|
|-3-0-----3-0|
|-3-0-----3-0|

Intro/Verse (distortion x4)

|-------------------------------------------|
|-------------------------------------------|
|-7-x-x-x-x-10-x-x-x-x-9-x-x-x-x-10-9/10\9--|
|-x-x-x-x-x-x--x-x-x-x-x-x-x-x-x-x--x------0|
|-5-x-x-x-x-8--x-x-x-x-7-x-x-x-x-8--7/8-\7-0|
|------------------------------------------0|

Bridge (Distortion x3)

|-----------------------------------------------|
|-----------------------------------------------|
|-----------------------------------------------|
|-3--3-5-3-0--3--3-5-3-0--5--5-7-5-0--5--5-7-5-0|
|-3--3-5-3-0--3--3-5-3-0--5--5-7-5-0--5--5-7-5-0|
|-3--3-5-3-0--3--3-5-3-0--5--5-7-5-0--5--5-7-5-0|

Chorus (Distortion x2)

|----------------------------------------------------------------|
|----------------------------------------------------------------|
|-10-----(10-10-10-10)X2---10-10-10-10-9-------------------------|
|-x------(x--x--x--x-)-----x--x--x--x--x-9-10-----(10-10-10-10)X4|
|-8------(8--8--8--8-)-----8--8--8--8--7-7-8------(8--8--8--8-)--|
|----------------------------------------7-8------(8--8--8--8-)--|

|------------|
|------------|
|------------|
|------------|
|-3-0-----3-0|
|-3-0-----3-0|

Chorus (Distortion x2)

|----------------------------------------------------------------|
|----------------------------------------------------------------|
|-10-----(10-10-10-10)X2---10-10-10-10-9-------------------------|
|-x------(x--x--x--x-)-----x--x--x--x--x-9-10-----(10-10-10-10)X4|
|-8------(8--8--8--8-)-----8--8--8--8--7-7-8------(8--8--8--8-)--|
|----------------------------------------7-8------(8--8--8--8-)--|

|------------|
|------------|
|------------|
|------------|
|-3-0-----3-0|
|-3-0-----3-0|

Outro (distortion x5)

|-----------------------------------|
|-----------------------------------|
|-10-10-10-9-9-9--------------------|
|-x--x--x--x-x-x-9-9-9--------------|
|-8--8--8--7-7-7-7-7-7-3-0--0--3-0-0|
|----------------7-7-7-3-0--0--3-0-0|

Play this for the 5th time through the outro
|-------------------------------------|
|-------------------------------------|
|-10-10-10-9-9-9----------------------|
|-x--x--x--x-x-x-9-9-9----------------|
|-8--8--8--7-7-7-7-7-7-3-0--0--3-0-0-0|
|----------------7-7-7-3-0--0--3-0-0-0|
                               . . .
comments
We did not receive enough feedback on this tab! Please rate:
print report bad tab
1 2 3 4 5
I want to post or [tab]
guest
You may want to rate the tab now too:
select rating
Please do not post tabs as comments. Select "correction" instead!