Oops, an error
Loading. Please wait.

Comfortable Liar Tab

version 2
version 2

Whole song

Interactive

35,177 views 6 this week
16 commentsread comments
1 2 3 4 5
x 25
add to favorites
launch autoscroll
font size
0
reset
how to read this tab
guitar tuner
Autoscroll
slow
fast
+/-
esc
set tempo
stop
Help us to improve Ultimate-Guitar.com Take our survey!
×
Author
Difficulty
Tuning
intermediate
C F A# D# G C
Chevelle - Comfortable Liar

Tuning - C# F# B E G# C#

Key:  . - Palm Mute    P.S. - Pick scrape
     LR - Let ring

This is from their Live from the Norva DVD.  There is absolutely no question that this
is perfect. Watch the DVD and you will see that the weird "07" chord is right on!

Intro
    P.S.
C#|-------------------------------------------------------------------|
G#|-------------------------------------------------------------------|
E |-------------------------------------------------------------------|
B |-------6---6-2--2-22--6---6-----2----6---6-2--2-22-6---6-----------|
F#|-------6-7-6-2--2-22--6-7-6-2---2----6-7-6-2--2-22-6-7-6--2--2--2--|
C#|-xxxxx-4-0-4-0--0-00--4-0-4-0---0----4-0-4-0--0-00-4-0-4--0--0--0--|
                               .   LR                        .  .  .

C#|-------------------------------------------------------------|
G#|-------------------------------------------------------------|
E |-------------------------------------------------------------|
B |-6---6-2--2-22--6---6-2---2----6---6-2--2-22-6---6-----2-----|
F#|-6-7-6-2--2-22--6-7-6-2---2----6-7-6-2--2-22-6-7-6--2--2-----|
C#|-4-0-4-0--0-00--4-0-4-0---0----4-0-4-0--0-00-4-0-4--0--0-----|
                         .                             .  LR 

VERSE
       7x              1x             3x             1x
C#|--------------|-------------|---------------|------------|
G#|--------------|-------------|---------------|------------|
E |--------------|-------------|---------------|------------|
B |-6---6-2--2-22|-6---6-------|-6---6-2--2-22-|6---6--2-2--|
F#|-6-7-6-2--2-22|-6-7-6-2-2-2-|-6-7-6-2--2-22-|6-7-6--2-2--|
C#|-4-0-4-0--0-00|-4-0-4-0-0-0-|-4-0-4-0--0-00-|4-0-4--0-0--|
                         . . .

CHORUS
So Heal............Your fear........
C#|----------------------------------------------|
G#|----------------------------------------------|
E |----------------------------------------------|
B |-2---------6---------2-------6----------------|
F#|-2---------6---------2-------6-----xxxxxxxxx--|
C#|-0---------4---------0-------4-----xxxxxxxxx--|
                                      P.S.

VERSE
       7x              1x             3x             1x
C#|--------------|-------------|---------------|------------|
G#|--------------|-------------|---------------|------------|
E |--------------|-------------|---------------|------------|
B |-6---6-2--2-22|-6---6-------|-6---6-2--2-22-|6---6--2-2--|
F#|-6-7-6-2--2-22|-6-7-6-2-2-2-|-6-7-6-2--2-22-|6-7-6--2-2--|
C#|-4-0-4-0--0-00|-4-0-4-0-0-0-|-4-0-4-0--0-00-|4-0-4--0-0--|

CHORUS
So heal................your fear..........
C#|---------------------------------------------------|
G#|---------------------------------------------------|
E |---------------------------------------------------|
B |-2--2--2--2--2--2--2--2--6--6--6--6--6--6--6--6----|   2x
F#|-2--2--2--2--2--2--2--2--6--6--6--6--6--6--6--6----|
C#|-000000000000000000000000400400400400400400400400--|
     .. .. .. .. .. .. .. .. .. .. .. .. .. .. .. ..

  ....comfortable liar......liar.....liar.....liar.....liar....cold....
C#|----------------------------------------------------------------------|
G#|----------------------------------------------------------------------|
E |----------------------------------------------------------------------|
B |---------------2---------6---------2-------6--------2-------6-----2---|
F#|---------------2---------6---------2-------6--------2-------6-----2---|
C#|---------------0---------4---------0-------4--------0-------4-----0---|
                  LR        LR        LR      LR       LR      LR    LR

       7x              1x
C#|---------------|----------------|
G#|---------------|----------------|
E |---------------|----------------|
B |-6---6-2--2-22-|-6---6-2--------|
F#|-6-7-6-2--2-22-|-6-7-6-2--------|
C#|-4-0-4-0--0-00-|-4-0-4-0--------|

You comfortable LIAR!..........................Liar!!!!!!!!!!
C#|-------------------------------------------------------------------------|
G#|-------------------------------------------------------------------------|
E |-------------------------------------------------------------------------|
B |6--6--6--6--6--6--6--6--6--6--6--6--6--6--6--6--6--6--6--6--6--6--6--6--6|
F#|6--6--6--6--6--6--6--6--6--6--6--6--6--6--6--6--6--6--6--6--6--6--6--6--6|
C#|4004004004004004004004004004004004004004004004004004004004004004004004004|
    .. .. .. .. .. .. .. .. .. .. .. .. .. .. .. .. .. .. .. .. .. .. .. ..

C#|------------------------------|
G#|------------------------------|
E |------------------------------|
B |--6--6--6--6--6--6--6--2------|
F#|--6--6--6--6--6--6--6--2------|
C#|004004004004004004004000------|
   .. .. .. .. .. .. .. ..

That's all!
Suggest correction
comments
print report bad tab
16 comments total. Showing first comments. show 2 bad comments
+2 reply
Phildo64 10 Jun 04, 2006 09:20 PM

you are a mother ****ing genius.

guest
You may want to rate the tab now too:
select rating
Wanna post a correction for this tab? Suggest correction