Oops, an error
Loading. Please wait.

Dont Fake This Tab

version 2
version 2

Whole song

Interactive

886 views 1 this week
5 commentsread comments
1 2 3 4 5
worth learning
x 4
add to favorites
launch autoscroll
font size
0
reset
how to read this tab
guitar tuner
Autoscroll
slow
fast
+/-
esc
set tempo
stop
Help us to improve Ultimate-Guitar.com Take our survey!
×
Author
Difficulty
Tuning
novice
C G C F A D
Tabber-Ian Kusner(E-PIG)
Artist-Chevelle
Song-Dont Fake This
Track-7
Tuning-Drop C

Guitar 1
-----------------------------------------------------|
-----------------------------------------------------|
-----------------------------------------------------|
-1-1-1-1-1-1-1-1-1-1-1-1-1-1-1-1--4-4-4-4-4-4-4-4-x--|
-1-1-1-1-1-1-1-1-1-1-1-1-1-1-1-1--4-4-4-4-4-4-4-4-x--|
-1-1-1-1-1-1-1-1-1-1-1-1-1-1-1-1--4-4-4-4-4-4-4-4-x--|
 1 e & a 2 e & a 3 e & a 4 e & a  1 e & a 2 e & a

------------------|
------------------|
------------------|
-8-8-8-8-8-8-8-8--|
-8-8-8-8-8-8-8-8--|
-8-8-8-8-8-8-8-8--|
 3 e & a 4 e & a


-----------------------------------------------------|
-----------------------------------------------------|
-----------------------------------------------------|
-1-1-1-1-1-1-1-1-1-1-1-1-1-1-1-1--4-4-4-4-4-4-4-4-x--|
-1-1-1-1-1-1-1-1-1-1-1-1-1-1-1-1--4-4-4-4-4-4-4-4-x--|
-1-1-1-1-1-1-1-1-1-1-1-1-1-1-1-1--4-4-4-4-4-4-4-4-x--|
 1 e & a 2 e & a 3 e & a 4 e & a  1 e & a 2 e & a

------------------|
------------------|
------------------|
-8-8-8-8-8-8-8-8--|
-8-8-8-8-8-8-8-8--|
-8-8-8-8-8-8-8-8--|
 3 e & a 4 e & a
Guitar 2(starts on second half of intro)
----------------------------------------------|
-11------11------11---------------------------|
---11-10---11-10---11-10----------------------|
----------------------------------------------| x2
----------------------------------------------|
----------------------------------------------|

Guitar 1 Distorted
-----------------------------------------------------|
-----------------------------------------------------|
-----------------------------------------------------|
-1-1-1-1-1-1-1-1-1-1-1-1-1-1-1-1--4-4-4-4-4-4-4-4-x--|
-1-1-1-1-1-1-1-1-1-1-1-1-1-1-1-1--4-4-4-4-4-4-4-4-x--|
-1-1-1-1-1-1-1-1-1-1-1-1-1-1-1-1--4-4-4-4-4-4-4-4-x--|
 1 e & a 2 e & a 3 e & a 4 e & a  1 e & a 2 e & a

------------------|
------------------|
------------------|
-8-8-8-8-8-8-8-8--|
-8-8-8-8-8-8-8-8--|
-8-8-8-8-8-8-8-8--|
 3 e & a 4 e & a


-----------------------------------------------------|
-----------------------------------------------------|
-----------------------------------------------------|
-1-1-1-1-1-1-1-1-1-1-1-1-1-1-1-1--4-4-4-4-4-4-4-4-x--|
-1-1-1-1-1-1-1-1-1-1-1-1-1-1-1-1--4-4-4-4-4-4-4-4-x--|
-1-1-1-1-1-1-1-1-1-1-1-1-1-1-1-1--4-4-4-4-4-4-4-4-x--|
 1 e & a 2 e & a 3 e & a 4 e & a  1 e & a 2 e & a

------------------|
------------------|
------------------|
-8-8-8-8-8-8-8-8--|
-8-8-8-8-8-8-8-8--|
-8-8-8-8-8-8-8-8--|
 3 e & a 4 e & a

Guitar 2 held out for 4 measures
----------------|
----------------|
----------------|
-1--------------|
-1--------------|
-1--------------|

Ignoring, a loss of sight.
Afraid to blink i might
lose the sun. But dont, make
this out, to be more, than it
is.Im behind, every lie, theres
a burden within.
YES YOUR MY SIGHT!!!

----------------------------------------|
----------------16----------------16----|
-15-15-15-15-15----15-15-15-15-15-------|
----------------------------------------|
----------------------------------------| x9
----------------------------------------|


guitar 1 distorted
----------------------------------------|
----------------------------------------|
----------------------------------------|
-1-1-1-1-1-1-1-1-1-1-1-1----------------|
-1-1-1-1-1-1-1-1-1-1-1-1----------------|
-1-1-1-1-1-1-1-1-1-1-1-1----------------|

guitar 2 (this is roughly how to do it. it was
kinda hard to tab)distorted
-18-18-17-18-18-17-19-19-18-------------|
----------------------------------------|
----------------------------------------|
----------------------------------------|
----------------------------------------|
----------------------------------------|
The suffering, thats kept within.
Disposable, men. Lost, Inside.
He was negative.

Guitar 1 Distorted
-----------------------------------------|
-----------------------------------------|
-----------------------------------------|
-1-1-1-1-1--1--4-4-4-4-8-8---------------| x4
-1-1-1-1-1--1--4-4-4-4-8-8---------------|
-1-1-1-1-1--1--4-4-4-4-8-8---------------|
 1 2 3 & 4     1 2 3 & 4 &


Guitar 2 held out for 4 measures
----------------|
----------------|
----------------|
-1--------------|
-1--------------|
-1--------------|
This place, once more was underground.
So look, and connect.
Were refusing,to rust
(I dont know this line)

-------------------------------------------|
-------------------------------------------|
-------------------------------------------|
---111-11-1-111-11-1-444-44-4-888-88-------|
---111-11-1-111-11-1-444-44-4-888-88-------|
---111-11-1-111-11-1-444-44-4-888-88-------|
Pm ... .. . ... .. . ... .. . ... ..

-------------------------------------------|
-------------------------------------------|
-------------------------------------------|
---111-11-1-111-11-1-444-44-4-888-88-------|
---111-11-1-111-11-1-444-44-4-888-88-------|
---111-11-1-111-11-1-444-44-4-888-88-------|
Pm ... .. . ... .. . ... .. . ... ..

So DONT fake this,
DONT fake this
DONT fake this
DONT
guitar 1 distorted
---------------------------------------------|
---------------------------------------------|
---------------------------------------------|
-1-1-1-1-1h4p1-1-1---------------------------|
-1-1-1-1-1h4p1-1-1---------------------------|
-1-1-1-1-1h4p1-1-1---------------------------|


---------------------------------------------|
---------------------------------------------|
---------------------------------------------|
-1-1-1-1-1h4p1-1-1---------------------------|
-1-1-1-1-1h4p1-1-1---------------------------|
-1-1-1-1-1h4p1-1-1---------------------------|

The suffering, kept within
Disposable, men. Lost,

Guitar 1 distorted
-----------------------------------------|
-----------------------------------------|
-----------------------------------------|
-1-1-1-1-1--1--4-4-4-4-8-8---------------|
-1-1-1-1-1--1--4-4-4-4-8-8---------------|
-1-1-1-1-1--1--4-4-4-4-8-8---------------|
 1 2 3 & 4     1 2 3 & 4 &


-----------------------------------------|
-----------------------------------------|
-----------------------------------------|
-1-1-1-1-1--1--4-4-4-4-8-8---------------|
-1-1-1-1-1--1--4-4-4-4-8-8---------------|
-1-1-1-1-1--1--4-4-4-4-8-8---------------|
 1 2 3 & 4     1 2 3 & 4 &

DONT fake this,
DONT fake this
DONT fake this
DONT
FAKE
FAKE
FAKE

guitar 1 distorted
---------------------------------------------|
---------------------------------------------|
---------------------------------------------|
-1-1-1-1-1h4p1-1-1---------------------------|
-1-1-1-1-1h4p1-1-1---------------------------|
-1-1-1-1-1h4p1-1-1---------------------------|


---------------------------------------------|
---------------------------------------------|
---------------------------------------------|
-1-1-1-1-1h4p1-1-1---------------------------|
-1-1-1-1-1h4p1-1-1---------------------------|
-1-1-1-1-1h4p1-1-1---------------------------|

guitar two distorted
---------------------------------------------|
---------------------------------------------|
---------------------------------------------|
---------------------------------------------|
-4-4-4-4-8-8-8-8-----------------------------|
---------------------------------------------|

The suffering, kept within
Disposable, men. Lost,


Guitar 1 distorted
-----------------------------------------|
-----------------------------------------|
-----------------------------------------|
-1-1-1-1-1--1--4-4-4-4-8-8---------------|
-1-1-1-1-1--1--4-4-4-4-8-8---------------|
-1-1-1-1-1--1--4-4-4-4-8-8---------------|
 1 2 3 & 4     1 2 3 & 4 &


-----------------------------------------|
-----------------------------------------|
-----------------------------------------|
-1-1-1-1-1--1--4-4-4-4-8-8---------------|
-1-1-1-1-1--1--4-4-4-4-8-8---------------|
-1-1-1-1-1--1--4-4-4-4-8-8---------------|
 1 2 3 & 4     1 2 3 & 4 &

DONT fake this,
DONT fake this
DONT fake this
DONT
FAKE
FAKE
FAKE

guitar 1 distorted
---------------------------------------------|
---------------------------------------------|
---------------------------------------------|
-1-1-1-1-1h4p1-1-1---------------------------|
-1-1-1-1-1h4p1-1-1---------------------------|
-1-1-1-1-1h4p1-1-1---------------------------|


---------------------------------------------|
---------------------------------------------|
---------------------------------------------|
-1-1-1-1-1h4p1-1-1---------------------------|
-1-1-1-1-1h4p1-1-1---------------------------|
-1-1-1-1-1h4p1-1-1---------------------------|

guitar two distorted
---------------------------------------------|
---------------------------------------------|
---------------------------------------------|
---------------------------------------------|
-4-4-4-4-8-8-8-8-----------------------------|
---------------------------------------------|

Both guitars
---------------------------------------------|
---------------------------------------------|
---------------------------------------------|
-1-1-1-1-------------------------------------|
-1-1-1-1-------------------------------------|
-1-1-1-1-------------------------------------|


Tab legand
___________

Pm. palm mute
p pull off
h hammer on
1e&a shows struming pattern

Enjoy- i put a LOT of time into this tab
PLEASE RATE AND COMMENT!!!
Suggest correction
comments
print report bad tab
5 comments total. Showing first comments.
+1 reply
365_days_gone 4,287 wrote on August 27 2009, 03:33 pm

Wrong tuning. Its in Drop B and uses the open top 3 strings, so it makes the song impossible to play in C#.

-2 reply
E-PIG 72 wrote on August 27 2009, 04:13 pm

**** you this is fine

+1 reply
365_days_gone 4,287 wrote on January 5 2010, 07:14 pm

It is not fine since it is in the INCORRECT tuning. It is Drop B.

guest
You may want to rate the tab now too:
select rating
Wanna post a correction for this tab? Suggest correction