Oops, an error
Loading. Please wait.

Door To Door Cannibals tab

version 1
version 1

Whole song

4,963 views 51 this week
2 commentsread comments
1 2 3 4 5
x 5
add to favorites
×
Save as Personal and add changes to this tab that will be seen only by you. Learn more ›
×
You can save this tab as Personal to edit and correct it or add notes. All changes will be seen only by you. Learn more »
launch autoscroll
font size
0
reset
how to read this tab
guitar tuner
edit
Autoscroll
slow
fast
+/-
esc
set tempo
stop
Chevelle
"Door To Door Cannibals"

Drop C Tuning

Corrections welcome!


[Intro]

  G1
D|--------------------------------|--------------------------------|
A|--------------------------------|--------------------------------|
F|--------------------------------|--------------------------------|
C|0h3p2---2-2---2-2---2-2---2-2-0-|0h3p2---2-2---2/5---5-5---3-3-0-|
G|0h3p2---2-2---2-2---2-2---2-2-0-|0h3p2---2-2---2/5---5-5---3-3-0-|
C|0h3p2---2-2---2-2---2-2---2-2-0-|0h3p2---2-2---2/5---5-5---3-3-0-|

D|--------------------------------|--------------------------------|
A|--------------------------------|--------------------------------|
F|--------------------------------|--------------------------------|
C|0h3p2---2-2---2-2---2-2---2-2-0-|0h3p2---2-2---2/5---5-3---------|
G|0h3p2---2-2---2-2---2-2---2-2-0-|0h3p2---2-2---2/5---5-3---------|
C|0h3p2---2-2---2-2---2-2---2-2-0-|0h3p2---2-2---2/5---5-3---------|


[Verse]

D|--------------------------------|--------------------------------|
A|--------------------------------|--------------------------------|
F|--------------------------------|--------------------------------|
C|0h3p2---2-2---2-2---2-2---2-2-0-|0h3p2---2-2---2/5---5-5---3-3-0-|
G|0h3p2---2-2---2-2---2-2---2-2-0-|0h3p2---2-2---2/5---5-5---3-3-0-|
C|0h3p2---2-2---2-2---2-2---2-2-0-|0h3p2---2-2---2/5---5-5---3-3-0-|
                                                                     X2
D|--------------------------------|--------------------------------|
A|--------------------------------|--------------------------------|
F|--------------------------------|--------------------------------|
C|0h3p2---2-2---2-2---2-2---2-2-0-|0h3p2---2-2---2/5---5-5---3-3---|
G|0h3p2---2-2---2-2---2-2---2-2-0-|0h3p2---2-2---2/5---5-5---3-3---|
C|0h3p2---2-2---2-2---2-2---2-2-0-|0h3p2---2-2---2/5---5-5---3-3---|

  PM                               PM
D|--------------------------------|--------------------------------|
A|--------------------------------|--------------------------------|
F|--------------------------------|--------------------------------|
C|--------------------------------|--------------------------------| X2
G|0-2-0-2-3-2-0-2-0-2-0-2/5-3-2-3-|0-2-0-2-3-2-0-2-0-2-0-2/5-3-2-3-|
C|0-2-0-2-3-2-0-2-0-2-0-2/5-3-2-3-|0-2-0-2-3-2-0-2-0-2-0-2/5-3-2-3-|


[Chorus]

D|--------------------------------|--------------------------------|
A|--------------------------------|--------------------------------|
F|--------------------------------|--------------------------------|
C|14--14-----14-14-14-----14--14--|---14-14-14-----14-0----12\-----|
G|14--14-----14-14-14-----14--14--|---14-14-14-----14-0----12\-----|
C|14--14-----14-14-14-----14--14--|---14-14-14-----14-0----12\-----|
                                                                    x2
D|--------------------------------|--------------------------------|
A|--------------------------------|--------------------------------|
F|--------------------------------|--------------------------------|
C|2---2-------2-2-2-------2---2---|----2-2-2-------2-0-----0-------|
G|2---2-------2-2-2-------2---2---|----2-2-2-------2-0-----0-------|
C|2---2-------2-2-2-------2---2---|----2-2-2-------2-0-----0-------|


[Verse]

D|--------------------------------|--------------------------------|
A|--------------------------------|--------------------------------|
F|--------------------------------|--------------------------------|
C|0h3p2---2-2---2-2---2-2---2-2-0-|0h3p2---2-2---2/5---5-5---3-3-0-|
G|0h3p2---2-2---2-2---2-2---2-2-0-|0h3p2---2-2---2/5---5-5---3-3-0-|
C|0h3p2---2-2---2-2---2-2---2-2-0-|0h3p2---2-2---2/5---5-5---3-3-0-|
                                                                     X2
D|--------------------------------|--------------------------------|
A|--------------------------------|--------------------------------|
F|--------------------------------|--------------------------------|
C|0h3p2---2-2---2-2---2-2---2-2-0-|0h3p2---2-2---2/5---5-5---3-3---|
G|0h3p2---2-2---2-2---2-2---2-2-0-|0h3p2---2-2---2/5---5-5---3-3---|
C|0h3p2---2-2---2-2---2-2---2-2-0-|0h3p2---2-2---2/5---5-5---3-3---|

  PM                               PM
D|--------------------------------|--------------------------------|
A|--------------------------------|--------------------------------|
F|--------------------------------|--------------------------------|
C|--------------------------------|--------------------------------| X2
G|0-2-0-2-3-2-0-2-0-2-0-2/5-3-2-3-|0-2-0-2-3-2-0-2-0-2-0-2/5-3-2-3-|
C|0-2-0-2-3-2-0-2-0-2-0-2/5-3-2-3-|0-2-0-2-3-2-0-2-0-2-0-2/5-3-2-3-|


[Chorus]

D|--------------------------------|--------------------------------|
A|--------------------------------|--------------------------------|
F|--------------------------------|--------------------------------|
C|14--14-----14-14-14-----14--14--|---14-14-14-----14-0----12\-----|
G|14--14-----14-14-14-----14--14--|---14-14-14-----14-0----12\-----|
C|14--14-----14-14-14-----14--14--|---14-14-14-----14-0----12\-----|
                                                                    x2
D|--------------------------------|--------------------------------|
A|--------------------------------|--------------------------------|
F|--------------------------------|--------------------------------|
C|2---2-------2-2-2-------2---2---|----2-2-2-------2-0-----0-------|
G|2---2-------2-2-2-------2---2---|----2-2-2-------2-0-----0-------|
C|2---2-------2-2-2-------2---2---|----2-2-2-------2-0-----0-------|

  G2
D|--------------------------------|--------------------------------|
A|--------------------------------|--------------------------------|
F|--------------------------------|--------------------------------|
C|--------------------------------|--------------------------------|
G|7N------------------------------|----------------5N--------------|
C|--------------------------------|--------------------------------|
 |
D|--------------------------------|--------------------------------|
A|--------------------------------|--------------------------------|
F|--------------------------------|--------------------------------|
C|2---2-------2-2-2-------2---2---|----2-2-2-------2-0-----12\-----|
G|2---2-------2-2-2-------2---2---|----2-2-2-------2-0-----12\-----|
C|2---2-------2-2-2-------2---2---|----2-2-2-------2-0-----12\-----|


D|--------------------------------|--------------------------------|
A|--------------------------------|--------------------------------|
F|--------------------------------|--------------------------------|
C|--------------------------------|--------------------------------|
G|7N------------------------------|----------------5N--------------|
C|--------------------------------|--------------------------------|
 |
D|--------------------------------|--------------------------------|
A|--------------------------------|--------------------------------|
F|--------------------------------|--------------------------------|
C|2---2-------2-2-2-------2---2---|----2-2-2-------2-0-----0-------|
G|2---2-------2-2-2-------2---2---|----2-2-2-------2-0-----0-------|
C|2---2-------2-2-2-------2---2---|----2-2-2-------2-0-----0-------|


D|--------------------------------|--------------------------------|
A|--------------------------------|--------------------------------|
F|--------------------------------|--------------------------------|
C|--------------------------------|--------------------------------|
G|10N-----------------------------|----------------9N--------------|
C|--------------------------------|--------------------------------|
 |
D|--------------------------------|--------------------------------|
A|--------------------------------|--------------------------------|
F|--------------------------------|--------------------------------|
C|2---2-------2-2-2-------2---2---|----2-2-2-------2-0-----12\-----|
G|2---2-------2-2-2-------2---2---|----2-2-2-------2-0-----12\-----|
C|2---2-------2-2-2-------2---2---|----2-2-2-------2-0-----12\-----|


D|--------------------------------|--------------------------------|
A|--------------------------------|--------------------------------|
F|--------------------------------|--------------------------------|
C|--------------------------------|--------------------------------|
G|7N------------------------------|----------------5N--------------|
C|--------------------------------|--------------------------------|
 |
D|--------------------------------|--------------------------------|
A|--------------------------------|--------------------------------|
F|--------------------------------|--------------------------------|
C|2---2-------2-2-2-------2---2---|----2-2-2-------2-0-----0-------|
G|2---2-------2-2-2-------2---2---|----2-2-2-------2-0-----0-------|
C|2---2-------2-2-2-------2---2---|----2-2-2-------2-0-----0-------|


D|--------------------------------|--------------------------------|
A|--------------------------------|--------------------------------|
F|--------------------------------|--------------------------------|
C|--------------------------------|--------------------------------|
G|7-------------------------------|--------(7)gb-------------------|
C|--------------------------------|--------------------------------|
 |PM                               PM
D|--------------------------------|--------------------------------|
A|--------------------------------|--------------------------------|
F|--------------------------------|--------------------------------|
C|--------------------------------|--------------------------------|
G|0-2-0-2-3-2-0-2-0-2-0-2/5-3-2-3-|0-2-0-2-3-2-0-2-0-2-0-2/5-3-2-3-|
C|0-2-0-2-3-2-0-2-0-2-0-2/5-3-2-3-|0-2-0-2-3-2-0-2-0-2-0-2/5-3-2-3-|


[Bridge]

D|--------------------------------|--------------------------------|
A|--------------------------------|--------------------------------|
F|--------------------------------|--------------------------------|
C|--------------------------------|--------------------------------|
G|--------------------------------|----------*12//////////////////0|Scrape pick down string
C|--------------------------------|--------------------------------|
 |PM, pick 32nd notes              PM, pick 32nd notes
D|--------------------------------|--------------------------------|
A|--------------------------------|--------------------------------|
F|--------------------------------|--------------------------------|
C|--------------------------------|--------------------------------|
G|0-2-0-2-3-2-0-2-0-2-0-2/5-3-2-3-|0-2-0-2-3-2-0-2-0-2-0-2/5-3-2-3-|
C|0-2-0-2-3-2-0-2-0-2-0-2/5-3-2-3-|0-2-0-2-3-2-0-2-0-2-0-2/5-3-2-3-|


D|--------------------------------|--------------------------------|
A|--------------------------------|--------------------------------|
F|--------------------------------|-------------------------------/|
C|--------------------------------|--------------------------------|
G|--------------------------------|--------------------------------|
C|--------------------------------|--------------------------------|
 |PM, pick 32nd notes              PM, pick 32nd notes
D|--------------------------------|--------------------------------|
A|--------------------------------|--------------------------------|
F|--------------------------------|--------------------------------|
C|--------------------------------|--------------------------------|
G|0-2-0-2-3-2-0-2-0-2-0-2/5-3-2-3-|0-2-0-2-3-2-0-2-0-2-0-2/5-3-2-3-|
C|0-2-0-2-3-2-0-2-0-2-0-2/5-3-2-3-|0-2-0-2-3-2-0-2-0-2-0-2/5-3-2-3-|


[Solo]

  Gradually rock wah pedal up and down throughout.
D|--------------------------------|--------------------------------|
A|--------------------------------|--------------------------------|
F|9N------------------------------|10N-------------12N-------------|
C|--------------------------------|--------------------------------|
G|--------------------------------|--------------------------------|
C|--------------------------------|--------------------------------|
 |PM, pick 32nd notes              PM, pick 32nd notes
D|--------------------------------|--------------------------------|
A|--------------------------------|--------------------------------|
F|--------------------------------|--------------------------------|
C|--------------------------------|--------------------------------|
G|0-2-0-2-3-2-0-2-0-2-0-2/5-3-2-3-|0-2-0-2-3-2-0-2-0-2-0-2/5-3-2-3-|
C|0-2-0-2-3-2-0-2-0-2-0-2/5-3-2-3-|0-2-0-2-3-2-0-2-0-2-0-2/5-3-2-3-|


D|--------------------------------|--------------------------------|
A|--------------------------------|--------------------------------|
F|7N------------------------------|------------------6N------------|
C|--------------------------------|--------------------------------|
G|--------------------------------|--------------------------------|
C|--------------------------------|--------------------------------|
 |
D|--------------------------------|--------------------------------|
A|--------------------------------|--------------------------------|
F|--------------------------------|--------------------------------|
C|2---2-------2-2-2-------2---2---|----2-2-2-------2-0-----12\-----|
G|2---2-------2-2-2-------2---2---|----2-2-2-------2-0-----12\-----|
C|2---2-------2-2-2-------2---2---|----2-2-2-------2-0-----12\-----|


D|--------------------------------|--------------------------------|
A|--------------------------------|--------------------------------|
F|9N------------------------------|------------------7N------------|
C|--------------------------------|--------------------------------|
G|--------------------------------|--------------------------------|
C|--------------------------------|--------------------------------|
 |
D|--------------------------------|--------------------------------|
A|--------------------------------|--------------------------------|
F|--------------------------------|--------------------------------|
C|2---2-------2-2-2-------2---2---|----2-2-2-------2-0-----0-------|
G|2---2-------2-2-2-------2---2---|----2-2-2-------2-0-----0-------|
C|2---2-------2-2-2-------2---2---|----2-2-2-------2-0-----0-------|


D|--------------------------------|--------------------------------|
A|--------------------------------|--------------------------------|
F|7N------------------------------|------------------6N------------|
C|--------------------------------|--------------------------------|
G|--------------------------------|--------------------------------|
C|--------------------------------|--------------------------------|
 |
D|--------------------------------|--------------------------------|
A|--------------------------------|--------------------------------|
F|--------------------------------|--------------------------------|
C|2---2-------2-2-2-------2---2---|----2-2-2-------2-0-----12\-----|
G|2---2-------2-2-2-------2---2---|----2-2-2-------2-0-----12\-----|
C|2---2-------2-2-2-------2---2---|----2-2-2-------2-0-----12\-----|


D|--------------------------------|--------------------------------|
A|--------------------------------|--------------------------------|
F|9-------------------------------|--------------------------------|
C|--------------------------------|--------------------------------|
G|--------------------------------|--------------------------------|
C|--------------------------------|--------------------------------|
 |
D|--------------------------------|--------------------------------|
A|--------------------------------|--------------------------------|
F|--------------------------------|--------------------------------|
C|2---2-------2-2-2-------2---2---|----2-2-2-------2-0-----0-------|
G|2---2-------2-2-2-------2---2---|----2-2-2-------2-0-----0-------|
C|2---2-------2-2-2-------2---2---|----2-2-2-------2-0-----0-------|


[Chorus]

D|----0-2-3-2-0-------0-2-3-2-0---|----0-2-3-2-0-2-0---------------|
A|--------------------------------|------------------3-------------|
F|--------------------------------|--------------------------------|
C|--------------------------------|--------------------------------|
G|--------------------------------|--------------------------------|
C|--------------------------------|--------------------------------|
 |
D|--------------------------------|--------------------------------|
A|--------------------------------|--------------------------------|
F|--------------------------------|--------------------------------|
C|14--14-----14-14-14-----14--14--|---14-14-14-----14-0----12\-----|
G|14--14-----14-14-14-----14--14--|---14-14-14-----14-0----12\-----|
C|14--14-----14-14-14-----14--14--|---14-14-14-----14-0----12\-----|

                                                                    X2
D|----0-2-3-2-0-------0-2-3-2-0---|----0-2-3-2-0-2-0---------------|
A|--------------------------------|------------------3-------------|
F|--------------------------------|--------------------------------|
C|--------------------------------|--------------------------------|
G|--------------------------------|--------------------------------|
C|--------------------------------|--------------------------------|
 |
D|--------------------------------|--------------------------------|
A|--------------------------------|--------------------------------|
F|--------------------------------|--------------------------------|
C|2---2-------2-2-2-------2---2---|----2-2-2-------2-0-----0-------|
G|2---2-------2-2-2-------2---2---|----2-2-2-------2-0-----0-------|
C|2---2-------2-2-2-------2---2---|----2-2-2-------2-0-----0-------|


[Outro]

D|--------------------------------|--------------------------------|
A|--------------------------------|----x-x-x---x-x-----------------|
F|--------------------------------|----x-x-x---x-x-----------------|
C|2---2---------------------------|----x-x-x---x-x-2-0-----0-------|
G|2---2---------------------------|----x-x-x---x-x-2-0-----0-------|
C|2---2---------------------------|----------------2-0-----0-------|

            Scrape pick down string
D|--------------------------------|--------------------------------|
A|--------------------------------|--------------------------------|
F|--------------------------------|--------------------------------|
C|--------------------------------|--------------------------------|
G|--------------------------------|--------------------------------|
C|---------*12///////-------------|--------------------------------|
 |
D|--------------------------------|--------------------------------|
A|--------------------------------|--------------------------------|
F|--------------------------------|--------------------------------|
C|2---2---------------------------|----------------2-0-----0-------|
G|2---2---------------------------|----------------2-0-----0-------|
C|2---2---------------------------|----------------2-0-----0-------|


D|----0-2-3-2-0-------0-2-3-2-0---|----0-2-3-2-0-2-0---------------|
A|--------------------------------|------------------3-------------|
F|--------------------------------|--------------------------------|
C|--------------------------------|--------------------------------|
G|--------------------------------|--------------------------------|
C|--------------------------------|--------------------------------|
 |
D|--------------------------------|--------------------------------|
A|--------------------------------|------------x-x-----------------|
F|--------------------------------|------------x-x-----------------|
C|2---2---------------------------|------------x-x-2-0-----0-------|
G|2---2---------------------------|------------x-x-2-0-----0-------|
C|2---2---------------------------|----------------2-0-----0-------|

  G3
D|--------------------------------|--------------------------------|
A|--------------------------------|--------------------------------|
F|--------------------------------|--------------------------------|
C|------------5N------------------|5N------------------------------|
G|--------------------------------|--------------------------------|
C|--------------------------------|--------------------------------|
 |
D|----0-2-3-2-0-------0-2-3-2-0---|----0-2-3-2-0-2-0---------------|
A|--------------------------------|------------------3-------------|
F|--------------------------------|--------------------------------|
C|--------------------------------|--------------------------------|
G|--------------------------------|--------------------------------|
C|--------------------------------|--------------------------------|
 |
D|--------------------------------|--------------------------------|
A|--------------------------------|--------------------------------|
F|--------------------------------|--------------------------------|
C|2---2---------------------------|----------------2-0-----0-------|
G|2---2---------------------------|----------------2-0-----0-------|
C|2---2---------------------------|----------------2-0-----0-------|


[End]

D|--------------------------------|
A|--------------------------------|
F|--------------------------------|
C|2-------------------------------|
G|2-------------------------------|
C|2-------------------------------|

************************************

| /    Slide up
| \    Slide down
| h    Hammer-on
| x    Dead note
| N    Tremolo pick
| p    Pull-off
| gb   Gradual bend
| PM   Palm mute

************************************

            
            
Suggest correction
Creating personal tab
Creating personal tab
You can edit any tab online and save it as your Personal.

You can edit, replace or remove any tab part or add personal notes – all changes will be seen only by you.

Personal tabs can be accessed anytime from any device, even offline.
Learn more »
comments
print report bad tab
2 comments total.
0 reply
jkc4118 10 Sep 14, 2016 03:37 PM

The first line on the chorus they are playing the power chord an octave higher on the 14th fret, but otherwise this is dead on. Thanks!

0 reply
bdog14 10 May 18, 2017 04:21 PM

At the beginning, instead of coming in on the barred 2 power chord, you come in on an open power chord. 0-3-2 rather than 2-3-2.

guest
You may want to rate the tab now too:
select rating
Wanna post a correction for this tab? Suggest correction