Oops, an error
Loading. Please wait.

Enemies bass

73 views 3 this week
no commentswrite comment
1 2 3 4 5
1 last vote to show rating
add to favorites
×
Save as Personal and add changes to this tab that will be seen only by you. Learn more ›
×
You can save this tab as Personal to edit and correct it or add notes. All changes will be seen only by you. Learn more »
launch autoscroll
font size
0
reset
guitar tuner
edit
Autoscroll
slow
fast
+/-
esc
set tempo
stop
Chevelle
"Enemies"

Drop B tuning

Corrections welcome!

[Intro]

Bass rests.

[Verse]

E |--------------------------------|--------------------------------|
B |--------------------------------|--------------------------------|
F#|--------------------------------|--------------------------------|
B |8---8---8---8---8---8---8---8---|8---8---8---8---8---8---10--10--|

E |--------------------------------|--------------------------------|
B |--------------------------------|--------------------------------|
F#|--------------------------------|--------------------------------|
B |12--12--12--12--12--12--12--12--|10--10--10--10--10--10--10--10--|

E |--------------------------------|--------------------------------|
B |--------------------------------|--------------------------------|
F#|--------------------------------|--------------------------------|
B |8---8---8---8---8---8---8---8---|8---8---8---8---8---8---10--10--|

E |--------------------------------|--------------------------------|
B |--------------------------------|--------------------------------|
F#|--------------------------------|--------------------------------|
B |12--12--12--12--12--12--12--12--|10--10--10--10--10--10--10--10-/|

E |--------------------------------|--------------------------------|
B |--------------------------------|--------------------------------|
F#|--------------------------------|--------------------------------|
B |15----------------15\0---------/|17----------------17\0---------/|

E |--------------------------------|--------------------------------|
B |--------------------------------|--------------------------------|
F#|--------------------------------|--------------------------------|
B |19----------------19\0---------/|20----------20\0-/22~----------\|


[Chorus]

E |--------------------------------|--------------------------------|
B |--------------------------------|--------------------------------|
F#|--------------------------------|--------------------------------|
B |3-----0-----0-----0-----0---0---|3-----0-----0-----0-----0---0---|

E |--------------------------------|--------------------------------|
B |--------------------------------|--------------------------------|
F#|--------------------------------|--------------------------------|
B |3-----0-----0-----0-----0---0---|3-----0-----0-----0-------------|

E |--------------------------------|--------------------------------|Listen for the rhythm: some of the notes
B |--------------------------------|--------------------------------|are sustained in contrast to the guitar
F#|--------------------------------|--------------------------------|part
B |3-----0-----0-----0-----0---0---|3-----0-----0-----0-----0---0---|

E |--------------------------------|--------------------------------|
B |--------------------------------|--------------------------------|
F#|--------------------------------|--------------------------------|
B |3-----0-----0-----0-----0---0---|3-----0-----0-----0-----2-0-2-0-|

E |--------------------------------|--------------------------------|
B |--------------------------------|--------------------------------|
F#|--------------------------------|--------------------------------|
B |0----/3-----0----/3-----0---2---|0----/3-----0----/3-----0---2---|

E |--------------------------------|--------------------------------|
B |--------------------------------|--------------------------------|
F#|--------------------------------|--------------------------------|
B |0----/3-----0----/3-----0---2---|0----/3-----0----/3-----0---2---|


[Verse]

E |--------------------------------|--------------------------------|
B |--------------------------------|--------------------------------|
F#|--------------------------------|--------------------------------|
B |8---8---8---8---8---8---8---8---|8---8---8---8---8---10--10--10--|

E |--------------------------------|--------------------------------|
B |--------------------------------|--------------------------------|
F#|--------------------------------|--------------------------------|
B |12--12--12--12--12--12--12--12--|10--10--10--10--10--10--10--10--|

E |--------------------------------|--------------------------------|
B |--------------------------------|--------------------------------|
F#|--------------------------------|--------------------------------|
B |8---8---8---8---8---8---8---8---|8---8---8---8---8---10--10--10--|

E |--------------------------------|--------------------------------|
B |--------------------------------|--------------------------------|
F#|--------------------------------|--------------------------------|
B |12--12--12--12--12--12--12--12--|10--10--10--10--10--10--10--10-/|

E |--------------------------------|--------------------------------|
B |--------------------------------|--------------------------------|
F#|--------------------------------|--------------------------------|
B |15----------------15\0---------/|17----------------17\0---------/|

E |--------------------------------|--------------------------------|
B |--------------------------------|--------------------------------|
F#|--------------------------------|--------------------------------|
B |19----------------19\0---------/|20----------20\0-/22~----------\|


[Chorus]

E |--------------------------------|--------------------------------|
B |--------------------------------|--------------------------------|
F#|--------------------------------|--------------------------------|
B |3-----0-----0-----0-----0---0---|3-----0-----0-----0-----0---0---|

E |--------------------------------|--------------------------------|
B |--------------------------------|--------------------------------|
F#|--------------------------------|--------------------------------|
B |3-----0-----0-----0-----0---0---|3-----0-----0-----0-------------|

E |--------------------------------|--------------------------------|
B |--------------------------------|--------------------------------|
F#|--------------------------------|--------------------------------| Listen for the rhythm.
B |3-----0-----0-----0-----0---0---|3-----0-----0-----0-----0---0---|

E |--------------------------------|--------------------------------|
B |--------------------------------|--------------------------------|
F#|--------------------------------|--------------------------------|
B |3-----0-----0-----0-----0---0---|3-----0-----0-----0-----2-0-2-0-|

E |--------------------------------|--------------------------------|
B |--------------------------------|--------------------------------|
F#|--------------------------------|--------------------------------|
B |0----/3-----0----/3-----0---2---|0----/3-----0----/3-----0---2---|

E |--------------------------------|--------------------------------|
B |--------------------------------|--------------------------------|
F#|--------------------------------|--------------------------------|
B |0----/3-----0----/3-----0---2---|0----/3-----0----/3-----0---2---|


[Bridge]

E |--------------------------------|--------------------------------|
B |--------------------------------|--------------------------------|
F#|--------------------------------|--------------------------------|
B |0-0-------0-0-0-----0---0---0---|0-0-------0-0-0-----------------|

E |--------------------------------|--------------------------------|
B |--------------------------------|--------------------------------|
F#|--------------------------------|--------------------------------|
B |3-3-------3-3-3-----------------|5-5-------5-5-------------------|

E |--------------------------------|--------------------------------|
B |--------------------------------|--------------------------------|
F#|--------------------------------|--------------------------------|
B |7---7---7---7---0---0---0---0---|0---0---0---0---0---0---0---0---|

E |--------------------------------|--------------------------------|
B |--------------------------------|--------------------------------|
F#|--------------------------------|--------------------------------|
B |3---3---3---3---3---3---3---3---|5---5---5---5---5---5---5---5--/|

E |--------------------------------|--------------------------------|
B |--------------------------------|--------------------------------|
F#|--------------------------------|--------------------------------|
B |15----------------15\0---------/|17----------------17\0---------/|

E |--------------------------------|--------------------------------|
B |--------------------------------|--------------------------------|
F#|--------------------------------|--------------------------------|
B |19----------------19\0---------/|20----------20\0-/22~----------\|


[Chorus]

E |--------------------------------|--------------------------------|
B |--------------------------------|--------------------------------|
F#|--------------------------------|--------------------------------|
B |3-----0-----0-----0-----0---0---|3-----0-----0-----0-----0---0---|

E |--------------------------------|--------------------------------|
B |--------------------------------|--------------------------------|
F#|--------------------------------|--------------------------------|
B |3-----0-----0-----0-----0---0---|3-----0-----0-----0-------------|

E |--------------------------------|--------------------------------|
B |--------------------------------|--------------------------------|
F#|--------------------------------|--------------------------------|
B |3-----0-----0-----0-----0---0---|3-----0-----0-----0-----0---0---|

E |--------------------------------|--------------------------------|
B |--------------------------------|--------------------------------|
F#|--------------------------------|--------------------------------|
B |3-----0-----0-----0-----0---0---|3-----0-----0-----0----12\------|


   PM                               PM
E |--------------------------------|--------------------------------|
B |--------------------------------|--------------------------------|
F#|--------------------------------|--------------------------------|
B |3\----0-----0-----0-----0---0---|3\----0-----0-----0-----0---0---|

   PM                               PM
E |--------------------------------|--------------------------------|
B |--------------------------------|--------------------------------|
F#|--------------------------------|--------------------------------|
B |3\----0-----0-----0-----0---0---|3\----0-----0-----0----0-0------|

   PM                               PM
E |--------------------------------|--------------------------------|
B |--------------------------------|--------------------------------|
F#|--------------------------------|--------------------------------|
B |3\----0-----0-----0-----0---0---|3\----0-----0-----0-----0---0---|

   PM                               PM
E |--------------------------------|--------------------------------|
B |--------------------------------|--------------------------------|
F#|--------------------------------|--------------------------------|
B |3\----0-----0-----0-----0---0---|3\----0-----0-----0-----0---0---|


[End]
   PM
E |--------------------------------|
B |--------------------------------|
F#|--------------------------------|
B |0-------------------------------|



************************************

| /    Slide up
| \    Slide down
| PM   Palm mute
| ~    Vibrato

************************************
Suggest correction
Creating personal tab
Creating personal tab
You can edit any tab online and save it as your Personal.

You can edit, replace or remove any tab part or add personal notes – all changes will be seen only by you.

Personal tabs can be accessed anytime from any device, even offline.
Learn more »
Give kudos to tab author, rate the tab!
1 2 3 4 5
comments
print report bad tab
guest
You may want to rate the tab now too:
select rating
Wanna post a correction for this tab? Suggest correction