Oops, an error
Loading. Please wait.

Enemies tab

425 views 1 this week
no commentswrite comment
1 2 3 4 5
3 more votes to show rating
add to favorites
×
Save as Personal and add changes to this tab that will be seen only by you. Learn more ›
×
You can save this tab as Personal to edit and correct it or add notes. All changes will be seen only by you. Learn more »
launch autoscroll
font size
0
reset
how to read this tab
guitar tuner
edit
Autoscroll
slow
fast
+/-
esc
set tempo
stop
[Intro]

   approximate random string noise and feedback
C#|0-------------------------------|--------------------------------|
G#|--------------------------------|11gb----------------------------|
E |--------------------------------|--------------------------------|
B |------------------------0-------|--------------------------------|
F#|--------------------------------|--------------------------------|
B |--------------------------------|--------------------------------|

C#|--------------------------------|--------------------------------|
G#|--------------------------------|--------------------------------|
E |--------------------------------|--------------------------------|
B |0-----3-----0-----3-----0-0-3---|0-----3-----0-----3-----0-0-3---| x2
F#|0-----3-----0-----3-----0-0-3---|0-----3-----0-----3-----0-0-3---|
B |0-----3-----0-----3-----0-0-3---|0-----3-----0-----3-----0-0-3---|


[Verse]

C#|--------------------------------|--------------------------------|
G#|--------------------------------|--------------------------------|
E |3-3-3-3-3-3-3-3-3-3-3-3-3-3-3-3-|3-3-3-3-3-3-3-3-3-3-3-3-5-5-5-5-|
B |--------------------------------|--------------------------------|
F#|1-1-1-1-1-1-1-1-1-1-1-1-1-1-1-1-|1-1-1-1-1-1-1-1-1-1-1-1-3-3-3-3-|
B |--------------------------------|--------------------------------|
                                                                     x2
C#|--------------------------------|--------------------------------|
G#|--------------------------------|--------------------------------|
E |7-7-7-7-7-7-7-7-7-7-7-7-7-7-7-7-|5-5-5-5-5-5-5-5-5-5-5-5-5-5-5-5-|
B |--------------------------------|--------------------------------|
F#|5-5-5-5-5-5-5-5-5-5-5-5-5-5-5-5-|3-3-3-3-3-3-3-3-3-3-3-3-3-3-3-3-|
B |--------------------------------|--------------------------------|

C#|--------------------------------|--------------------------------|
G#|--------------------------------|--------------------------------|
E |--------------------------------|--------------------------------|
B |3---0-3---0-3---0-3---0-3-0-3-0-|5---0-5---0-5---0-5---0-5-0-5-0-|
F#|--------------------------------|--------------------------------|
B |--------------------------------|--------------------------------|

C#|--------------------------------|--------------------------------|
G#|--------------------------------|--------------------------------|
E |--------------------------------|--------------------------------|
B |7---0-7---0-7---0-7---0-7-0-7-0-|8---0-8---0-8---0-10~10~10~10~--|
F#|--------------------------------|--------------------------------|
B |--------------------------------|--------------------------------|


[Chorus]

C#|--------------------------------|--------------------------------|
G#|--------------------------------|--------------------------------|
E |--------------------------------|--------------------------------|
B |3-----0-----0-----0-----0---0---|3-----0-----0-----0-----0---0---|
F#|3-----0-----0-----0-----0---0---|3-----0-----0-----0-----0---0---|
B |3-----0-----0-----0-----0---0---|3-----0-----0-----0-----0---0---|

C#|--------------------------------|--------------------------------|
G#|--------------------------------|--------------------------------|
E |--------------------------------|--------------------------------|
B |3-----0-----0-----0-----0---0---|3-----0-----0-----0----+2.8-+2.8|
F#|3-----0-----0-----0-----0---0---|3-----0-----0-----0----+2.8-+2.8|
B |3-----0-----0-----0-----0---0---|3-----0-----0-----0----+2.8-+2.8|

C#|--------------------------------|--------------------------------|
G#|--------------------------------|--------------------------------|
E |--------------------------------|--------------------------------|
B |3-----0-----0-----0-----0---0---|3-----0-----0-----0-----0---0---|
F#|3-----0-----0-----0-----0---0---|3-----0-----0-----0-----0---0---|
B |3-----0-----0-----0-----0---0---|3-----0-----0-----0-----0---0---|

C#|--------------------------------|--------------------------------|
G#|--------------------------------|--------------------------------|
E |--------------------------------|--------------------------------|
B |3-----0-----0-----0-----0---0---|3-----0-----0-----0----+5-------|
F#|3-----0-----0-----0-----0---0---|3-----0-----0-----0----+5-------|
B |3-----0-----0-----0-----0---0---|3-----0-----0-----0----+5-------|

C#|--------------------------------|--------------------------------|
G#|--------------------------------|--------------------------------|
E |--------------------------------|--------------------------------|
B |0-----3-----0-----3-----0---2---|0-----3-----0-----3-----0---2---| x2
F#|0-----3-----0-----3-----0---2---|0-----3-----0-----3-----0---2---|
B |0-----3-----0-----3-----0---2---|0-----3-----0-----3-----0---2---|


[Verse]

C#|--------------------------------|--------------------------------|
G#|--------------------------------|--------------------------------|
E |3-3-3-3-3-3-3-3-3-3-3-3-3-3-3-3-|3-3-3-3-3-3-3-3-3-3-5-5-5-5-5-5-|
B |--------------------------------|--------------------------------|
F#|1-1-1-1-1-1-1-1-1-1-1-1-1-1-1-1-|1-1-1-1-1-1-1-1-1-1-3-3-3-3-3-3-|
B |--------------------------------|--------------------------------|
                                                                     x2
C#|--------------------------------|--------------------------------|
G#|--------------------------------|--------------------------------|
E |7-7-7-7-7-7-7-7-7-7-7-7-7-7-7-7-|5-5-5-5-5-5-5-5-5-5-5-5-5-5-5-5-|
B |--------------------------------|--------------------------------|
F#|5-5-5-5-5-5-5-5-5-5-5-5-5-5-5-5-|3-3-3-3-3-3-3-3-3-3-3-3-3-3-3-3-|
B |--------------------------------|--------------------------------|

C#|--------------------------------|--------------------------------|
G#|--------------------------------|--------------------------------|
E |--------------------------------|--------------------------------|
B |3---0-3---0-3---0-3---0-3-0-3-0-|5---0-5---0-5---0-5---0-5-0-5-0-|
F#|--------------------------------|--------------------------------|
B |--------------------------------|--------------------------------|

C#|--------------------------------|--------------------------------|
G#|--------------------------------|--------------------------------|
E |--------------------------------|--------------------------------|
B |7---0-7---0-7---0-7---0-7-0-7-0-|8---0-8---0-8---0-10~10~10~10~--|
F#|--------------------------------|--------------------------------|
B |--------------------------------|--------------------------------|


[Chorus]

C#|--------------------------------|--------------------------------|
G#|--------------------------------|--------------------------------|
E |--------------------------------|--------------------------------|
B |3-----0-----0-----0-----0---0---|3-----0-----0-----0-----0---0---|
F#|3-----0-----0-----0-----0---0---|3-----0-----0-----0-----0---0---|
B |3-----0-----0-----0-----0---0---|3-----0-----0-----0-----0---0---|

C#|--------------------------------|--------------------------------|
G#|--------------------------------|--------------------------------|
E |--------------------------------|--------------------------------|
B |3-----0-----0-----0-----0---0---|3-----0-----0-----0----+2.8-+2.8|
F#|3-----0-----0-----0-----0---0---|3-----0-----0-----0----+2.8-+2.8|
B |3-----0-----0-----0-----0---0---|3-----0-----0-----0----+2.8-+2.8|

C#|--------------------------------|--------------------------------|
G#|--------------------------------|--------------------------------|
E |--------------------------------|--------------------------------|
B |3-----0-----0-----0-----0---0---|3-----0-----0-----0-----0---0---|
F#|3-----0-----0-----0-----0---0---|3-----0-----0-----0-----0---0---|
B |3-----0-----0-----0-----0---0---|3-----0-----0-----0-----0---0---|

C#|--------------------------------|--------------------------------|
G#|--------------------------------|--------------------------------|
E |--------------------------------|--------------------------------|
B |3-----0-----0-----0-----0---0---|3-----0-----0-----0----+5-------|
F#|3-----0-----0-----0-----0---0---|3-----0-----0-----0----+5-------|
B |3-----0-----0-----0-----0---0---|3-----0-----0-----0----+5-------|


[Bridge]

   with wah
C#|--------------------------------|--------------------------------|
G#|--------------------------------|--------------------------------|
E |--------------------------------|--------------------------------|
B |0-0-0-0-0-0-0-0-0-0-0-0-0-0-0-0-|0-0-0-0-0-0-0-0-0-0-0-0-0-0-0-0-| x2
F#|--------------------------------|--------------------------------|
B |--------------------------------|--------------------------------|

C#|--------------------------------|--------------------------------|
G#|--------------------------------|--------------------------------|
E |--------------------------------|--------------------------------|
B |5-----7-----3-----5-----2---0---|5-----7-----3-----5-----2---0---| x2
F#|--------------------------------|--------------------------------|
B |--------------------------------|--------------------------------|

C#|--------------------------------|--------------------------------|
G#|--------------------------------|--------------------------------|
E |--------------------------------|--------------------------------|
B |7-7-7-7-7-7-7-7-7-7-7-7-7-7-7-7-|7-7-7-7-7-7-7-7-7-7-7-7-7-7-7-7-|
F#|--------------------------------|--------------------------------|
B |--------------------------------|--------------------------------|

C#|--------------------------------|--------------------------------|
G#|--------------------------------|--------------------------------|
E |--------------------------------|----------------5~5~5~5~5~5~5~5~|
B |7-7-7-7-7-7-7-7-7-7-7-7-7-7-7-7-|8-8-8-8-8-8-8-8-----------------|
F#|--------------------------------|--------------------------------|
B |--------------------------------|--------------------------------|


[Chorus]

C#|--------------------------------|--------------------------------|
G#|--------------------------------|--------------------------------|
E |--------------------------------|--------------------------------|
B |3-----0-----0-----0-----0---0---|3-----0-----0-----0-----0---0---|
F#|3-----0-----0-----0-----0---0---|3-----0-----0-----0-----0---0---|
B |3-----0-----0-----0-----0---0---|3-----0-----0-----0-----0---0---|

C#|--------------------------------|--------------------------------|
G#|--------------------------------|--------------------------------|
E |--------------------------------|--------------------------------|
B |3-----0-----0-----0-----0---0---|3-----0-----0-----0----+2.8-----|
F#|3-----0-----0-----0-----0---0---|3-----0-----0-----0----+2.8-----|
B |3-----0-----0-----0-----0---0---|3-----0-----0-----0----+2.8-----|

C#|--------------------------------|--------------------------------|
G#|--------------------------------|--------------------------------|
E |--------------------------------|--------------------------------|
B |3-----0-----0-----0-----0---0---|3-----0-----0-----0-----0---0---|
F#|3-----0-----0-----0-----0---0---|3-----0-----0-----0-----0---0---|
B |3-----0-----0-----0-----0---0---|3-----0-----0-----0-----0---0---|

C#|--------------------------------|--------------------------------|
G#|--------------------------------|--------------------------------|
E |--------------------------------|--------------------------------|
B |3-----0-----0-----0-----0---0---|3-----0-----0-----0----+5-------|
F#|3-----0-----0-----0-----0---0---|3-----0-----0-----0----+5-------|
B |3-----0-----0-----0-----0---0---|3-----0-----0-----0----+5-------|

   PM                               PM
C#|--------------------------------|--------------------------------|
G#|--------------------------------|--------------------------------|
E |--------------------------------|--------------------------------|
B |3\----0-----0-----0-----0---0---|3\----0-----0-----0-----0---0---|
F#|3\----0-----0-----0-----0---0---|3\----0-----0-----0-----0---0---|
B |3\----0-----0-----0-----0---0---|3\----0-----0-----0-----0---0---|

   PM                               PM
C#|--------------------------------|--------------------------------|
G#|--------------------------------|--------------------------------|
E |--------------------------------|--------------------------------|
B |3\----0-----0-----0-----0---0---|3\----0-----0-----0----+2.8-----|
F#|3\----0-----0-----0-----0---0---|3\----0-----0-----0----+2.8-----|
B |3\----0-----0-----0-----0---0---|3\----0-----0-----0----+2.8-----|

   PM                               PM
C#|--------------------------------|--------------------------------|
G#|--------------------------------|--------------------------------|
E |--------------------------------|--------------------------------|
B |3\----0-----0-----0-----0---0---|3\----0-----0-----0-----0---0---|
F#|3\----0-----0-----0-----0---0---|3\----0-----0-----0-----0---0---|
B |3\----0-----0-----0-----0---0---|3\----0-----0-----0-----0---0---|

   PM                               PM
C#|--------------------------------|--------------------------------|
G#|--------------------------------|--------------------------------|
E |--------------------------------|--------------------------------|
B |3\----0-----0-----0-----0---0---|3\----0-----0-----0-----0---0---|
F#|3\----0-----0-----0-----0---0---|3\----0-----0-----0-----0---0---|
B |3\----0-----0-----0-----0---0---|3\----0-----0-----0-----0---0---|


[End]

   PM
C#|--------------------------------|
G#|--------------------------------|
E |--------------------------------|
B |0-------------------------------|
F#|0-------------------------------|
B |0-------------------------------|



************************************

| \    Slide down
| +    Harmonic
| gb   Gradual bend
| PM   Palm mute
| ~    Vibrato

************************************

            
            
Suggest correction
Creating personal tab
Creating personal tab
You can edit any tab online and save it as your Personal.

You can edit, replace or remove any tab part or add personal notes – all changes will be seen only by you.

Personal tabs can be accessed anytime from any device, even offline.
Learn more »
Give kudos to tab author, rate the tab!
1 2 3 4 5
comments
print report bad tab
guest
You may want to rate the tab now too:
select rating
Wanna post a correction for this tab? Suggest correction