Oops, an error
Loading. Please wait.

Fad Bass Tab

version 2
version 2

Whole song

Interactive

797 views 1 this week
2 commentsread comments
1 2 3 4 5
please rate
add to favorites
launch autoscroll
font size
0
reset
guitar tuner
Autoscroll
slow
fast
+/-
esc
set tempo
stop
Help us to improve Ultimate-Guitar.com Take our survey!
×
Author
Difficulty
Tuning
intermediate
B F# B E G# C#
Chevelle - The Fad
Upgraded tab. I saw a previous tab and the notes were correct, so I tought I post an
Thanks for the first tab!..

bass tuning : (Bb F Bb Eb) Note: It might be that my bass needs extra tunning for been
but I tryed tunning it with this tunning and then tunning pressing on the starting notes
the song and it seems to work perfect. better sound close enough to Chevelles bassist.
will see once you do that the open notes will actually be dropped a bit on the
Tune it to (Bb F Bb Eb) then press the following and tune as perfect as you can. Again
might be my Bass been cheap but it seems to work for me I played it with just tuning it
it didnt quite make it. Thick Strings and for closer sound get you the ODB-3 Bass 
+ The BBE Sonix maximizer.

tune this notes as perfect as you can.

EB|--------------------------------|
Bb|--------------------------------|
F |---7(C)-------------------------|
Bb|---------7(F)-------------------|
             note

Song notes: C B C# - C# - F F# G#- C C# Eb
______________________________________________

INTRO/Verse:
Eb|--------------------------------|
Bb|--------------------------------| Dont know the count.
F |--777--66--88--77777------------|
Bb|--------------------------------|

PRECHORUS:
Eb|---------------------------------------------------------|This part he plays
Bb|---------------------------------------------------------|it live a little
F |--88888------88888---101010------------------------------|different he just
Bb|---------------------------------------------------------|adds extra fillings.

CHORUS:
Eb|-----------------------------------------| -----|----------------|
Bb|-----------------------------------------|      |----------------|
F |-------3333---777--8888--101010--reapeat-| Then |----------------|
Bb|-7777------------------------------------|------|---2020202022---|

INTRO/Verse:
Eb|--------------------------------|
Bb|--------------------------------|
F |--777--66--88--77777------------|
Bb|--------------------------------|

PRECHORUS:
Eb|---------------------------------------------------|
Bb|---------------------------------------------------|
F |--88888------88888---101010------------------------|
Bb|---------------------------------------------------|

CHORUS:
Eb|-----------------------------------------| ------|
Bb|-------------------------------------------------|
F |-------3333---777--8888--101010--reapeat---------| Then Interlude
Bb|-7777------------------------------------|-------|

Interlude
Eb|---------------------------------------------------------------------|
Bb|---------------------------------------------------------------------|
F |-----------Guitar----------Guitar------------------------------------|
Bb|-202020202-------202020202-------202020202--20202020202--20202020202-|

Interlude Continue
Eb|------------------------------------------|
Bb|------------------------------------------|
F |---------------------------------------/7-|
Bb|-2-0-2-4-5-4-2-0-2-4-5-4-2-0-2-4-5-4------|

Interlude continue - this part repeat
Eb|--------------------------------------------------|
Bb|--------------------------------------------------|
F |--2-0-2-4-5-4-2-0-2-4-5-4-2-0-2-4-5-4----555--777-|
Bb|--------------------------------------------------|

Eb|-------------------------------------------------------|
Bb|-------------------------------------------------------|
F |-2-0-2-4-5-4-2-0-2-4-5-4-2-0-2-4-5-4---555---888---7777|repeat only
Bb|-------------------------------------------------------|this last 2 bars

end interlude:
Eb|--------------------|
Bb|--------------------|
F |--------------------|
Bb|-202020202020200222-|

CHORUS:
Eb|-----------------------------------------|
Bb|-----------------------------------------|
F |-------3333---777--8888--101010--reapeat-|
Bb|-7777------------------------------------|

OUTRO:
Eb|--------------------|
Bb|--------------------|
F |--------------------|
Bb|-202020202020200222-|
Suggest correction
What's this?
You can suggest a correction to this tab. Community and Mods will review your correction and vote to approve or reject it.
comments
We did not receive enough feedback on this tab! Please rate:
print report bad tab
1 2 3 4 5
2 comments total.
+1 reply
xmari3nx 109 wrote on July 20 2008, 10:19 pm

dude is this like 100% wrong or the wrong tab?

0 reply
RockBass-SAvnd 27 wrote on November 26 2008, 12:49 am

I watched closely the live videos on youtube and research the bass tunnings the bassist uses, I found on a interview the basist mentions the tunning he uses. so I compare it with the live videos and he plays with the bass tune down. if you listen closely you can notice the bass tuned down. I might be wrong but I'm quite sure. let me know if you find a closer or update this one when you get chance.

thanks,

guest
You may want to rate the tab now too:
select rating
Please do not post tabs as comments. Select "correction" instead!