Oops, an error
Loading. Please wait.

Fad Tab

version 2
version 2

Whole song

Interactive

2,183 views 9 this week
no commentswrite comment
1 2 3 4 5
please rate
add to favorites
launch autoscroll
font size
0
reset
how to read this tab
guitar tuner
Autoscroll
slow
fast
+/-
esc
set tempo
stop
Help us to improve Ultimate-Guitar.com Take our survey!
×
 Song  :The fad
 Band  :Chevelle
 Album :Vena Sera

 Tuning (DADGbe)

 Tab by:Ariel

 This is my interpretation of the song, all comentaries to my email aristhebig12_13@hotmail.com

 Enjoy!

 INTRO/1ºVERSE :

 |------------------|
 |------------------|
 |------------------| x16
 |-55-55-55-5544\36-|
 |-55-55-55-5544\36-|
 |-55-55-55-5544\36-|


 PRECHORUS :

 |-----------------------------------------88888888-|
 |--------------------------------------------------|
 |-777777777-7777777777-8-7777777777-77777----------|
 |-777777777-7777777777-8-7777777777-77777----------|
 |-555555555-5555555555-6-5555555555-55555----------|
 |--------------------------------------------------|
  
 CHORUS :

 |-----------------------------------------------------|
 |-----------------------------------------------------|
 |--------------555555666888--------------555555555555-| x2
 |-333333666666-555555666888-333333666666-555555555555-|
 |-333333666666-333333444666-333333666666-333333333333-|
 |-333333666666--------------333333666666--------------|

 PREVERSE :

 |------------------|
 |------------------|
 |------------------| x4
 |-55-55-55-55-5555-| 
 |-55-55-55-55-5555-|
 |-55-55-55-55-5555-|

 2º VERSE

 |-----------------------------|
 |-----------------------------|
 |-6-7h-6-7h-6-7h-6-7h-6-8-7-6-| x8
 |-----------------------------| 
 |-----------------------------|
 |-----------------------------|

 PRECHORUS x1
 
 cHORUS x2

 BRIDGE :

 |-------------------------------------------------------|
 |-------------------------------------------------------|
 |-------------------------------------------------------|x4
 |-55-55-55-55-55-55-------------------------------------|
 |-55-55-55-55-55-55-3-1-1-4-3-1-3-1-1-4-3-1-3-1-1-4-3-1-|
 |-55-55-55-55-55-55-------------------------------------|

 continued

 |-------------|------------------------|-------------|--------------|-------------|------------------|
 |-------------|------------------------|-------------|--------------|-------------|------------------|
 |-------------|-(x3)-------------------|-------------|-(x4)---------|-------------|-(x4)-------------|
 |-------------|------------------------|-------------|------888-333-|-------------|------888-11-11-8-|
 |-3-1-1-4-3-1-|------3-1-1-4-3-1-3~~~~-|-------------|------888-333-|-------------|------888-11-11-8-|
 |-------------|------------------------|-5-4-4-6-5-4-|------888-333-1-5-4-4-6-5-4-|------888-11-11-8-|

 |-------------|--------------|-------------|--------------|-----------------------------------------|
 |-------------|--------------|-------------|--------------|------------------------------------8888-|
 |-------------|-(x4)---------|-------------|-(x4)---------|------------------------------------5555-|
 |-------------|------8-8-333-|-------------|------8-8-3-3-|-5-xx-5-xx-5-xx-5-xx-5-xx-5-xx-xxxx-5555-|
 |-------------|------8-8-333-|-------------|------8-8-3-3-|-5-xx-5-xx-5-xx-5-xx-5-xx-5-xx-xxxx------|
 |-5-4-4-6-5-4-|------8-8-333-|-5-4-4-6-5-4-|------8-8-3-3-|-5-xx-5-xx-5-xx-5-xx-5-xx-5-xx-xxxx------|
 
 CHORUS x2

 OUTRO :

 |-----------------------------------------------------|
 |-----------------------------------------------------|
 |--------------555555666888--------------555555555555-| x2
 |-333333666666-555555666888-333333666666-555555555555-|
 |-333333666666-333333444666-333333666666-333333333333-|
 |-333333666666--------------333333666666--------------|

 on the second time
 
 |-----|
 |-----|
 |-----| x19
 |-5-5-|
 |-5-5-|
 |-5-5-|






comments
We did not receive enough feedback on this tab! Please rate:
print report bad tab
1 2 3 4 5
I want to post or [tab]
guest
You may want to rate the tab now too:
select rating
Please do not post tabs as comments. Select "correction" instead!