Oops, an error
Loading. Please wait.

Family System Tab

version 3
version 3

Whole song

Interactive

1,603 views 3 this week
no commentswrite comment
1 2 3 4 5
accurate
x 3
add to favorites
launch autoscroll
font size
0
reset
how to read this tab
guitar tuner
Tab Pro tools
  • play this tab
  • loop segment
  • change instrument
  • show fretboard
  • metronome
×
Best way to learn
"Family System"
Autoscroll
slow
fast
+/-
esc
set tempo
stop
Contributor
Difficulty
Tuning
novice
B F# B E G# C#
Family System
Artist: Chevelle
Album: Wonder What's Next

Guitar I – Dropped B tuning (low to high: B F# B E G# C#)

Intro
   3/4
|--------------------|-------------------|-------------------|-------------0------|
|o----0-----0-----0--|----0-----0-----0--|----0-----0-----0--|----0-----0-----0--o|
|--4-----4-----4-----|-4-----4-----4-----|-4-----4-----4-----|-4-----5------------|
|--------------------|-------------------|-------------------|--------------------|
|o-------------------|-------------------|-------------------|-------------------o|
|--------------------|-------------------|-------------------|--------------------|

|--------------------|-------------------|-------------------|-------------0------|
|o----0-----0-----0--|----0-----0-----0--|----0-----0-----0--|----0-----0-----0--o|
|--4-----4-----5-----|-4-----4-----5-----|-4-----4-----5-----|-4-----5------------|
|--------------------|-------------------|-------------------|--------------------|
|o-------------------|-------------------|-------------------|-------------------o|
|--------------------|-------------------|-------------------|--------------------|

|-------------------|--------------------|-------------------|-------------------|
|-------------------|--------------------|-------------------|-------------------|
|-------------------|--------------------|-------------------|-------------------|
|-------------------|--------------------|-------------------|-------------------|
|-0--0-----0--------|--------------------|-0--0-----0--------|-------------0-----|
|-0--0--------3--0--|-6--3--0--3--6--0-0-|-0--0--------3--0--|-6--3--0--3--0-----|
Pm         .  .  .    .  .  .  .  .  . .

|-------------------|--------------------|-------------------|----------------|
|-------------------|--------------------|-------------------|----------------|
|-------------------|--------------------|-------------------|----------------|
|-------------------|--------------------|-------------------|----------------|
|-0--0-----0--------|--------------------|-0--0-----0--------|----------------|
|-0--0--------3--0--|-6--3--0--3--6--0-0-|-0--0--------3--0--|-6--------------|
Pm         .  .  .    .  .  .  .  .  . .

Refrain
                                         x3
|--------------------|--------------------|-------------------|----x--x--x--x--x--|
|o-------------------|-------------------o|-------------------|----x--x--x--x--x--|
|--------------------|--------------------|-------------------|----x--x--x--x--x--|
|--2--------2--------|--------------------|-2--------2--------|----x--x--x--x--x--|
|o-0--3--0--0--3--0--|-6--3--0--6--3--0--o|-0--3--0--0--3--0--|-6--x--x--x--x--x--|
|-----3--0-----3--0--|-6--3--0--6--3--0---|----3--0-----3--0--|-6--x--x--x--x--x--|

                                         x4
|--------------------|--------------------|
|o-------------------|-------------------o|
|--------------------|--------------------|
|--2--------2--------|--------------------|
|o-0--3--0--0--3--0--|-6--3--0--6--3--0--o|
|-----3--0-----3--0--|-6--3--0--6--3--0---|

Verse
|---------------|-------------------|---------------|-------------------|
|---------------|-------------------|---------------|-------------------|
|---------------|-------------------|---------------|-------------------|
|---------------|-------------------|---------------|----------------2--|
|-3----3--3--3--|-3-----x--x--x--x--|-3----3--3--3--|----------------0--|
|-3----3--3--3--|-3-----x--x--x--x--|-3----3--3--3--|-3h-5--5--5--5-----|

|---------------|-------------------|---------------|-------------------|
|---------------|-------------------|---------------|-------------------|
|---------------|-------------------|---------------|-------------------|
|---------------|-------------------|---------------|-------------------|
|-0----0--0--0--|-0-----x--x--x--x--|-0----0--0--0--|----------------0--|
|-0----0--0--0--|-0-----x--x--x--x--|-0----0--0--0--|-0h-5--5--5--5--0--|

|---------------|-------------------|---------------|-------------------|
|---------------|-------------------|---------------|-------------------|
|---------------|-------------------|---------------|-------------------|
|---------------|-------------------|---------------|-------------------|
|-3----3--3--3--|-3-----x--x--x--x--|-3----3--3--3--|----------------0--|
|-3----3--3--3--|-3-----x--x--x--x--|-3----3--3--3--|-3h-5--5--5--5--0--|

Repeat refrain
Repeat verse
Interlude
|--------------------|----------------|-------------------|-----------------|
|o----0-----0-----0--|----------------|----0-----0-----0--|----------------o|
|--5-----4-----4-----|----------------|-5-----4-----4-----|-----------------|
|--------------------|----------------|-------------------|-----------------|
|o-------------------|-0--------------|-------------------|-0----0----0----o|
|--------------------|-0--------------|-------------------|-0----0----0-----|

|-------------------|----------------|-------------------|----------------|
|----0-----0-----0--|----------------|----0-----0-----0--|----------------|
|-5-----4-----4-----|----------------|-5-----4-----4-----|----------------|
|-------------------|----------------|-------------------|----------------|
|-------------------|----------------|-------------------|----------------|
|-------------------|-0~-------------|-------------------|-0~---0~---0~---|

|-------------------|----------------|-------------------|-------------------|
|----0-----0-----0--|----------------|----0-----0-----0--|----0-----0-----0--|
|-5-----4-----4-----|----------------|-5-----4-----4-----|-5-----4-----4-----|
|-------------------|----------------|-------------------|-------------------|
|-------------------|----------------|-------------------|-------------------|
|-------------------|-0~-------------|-------------------|-------------------|

Bridge
|-------------|------------|------------|-------------------|
|o------------|------------|------------|-------------------|
|-------------|------------|------------|-5--5--5--4--4--4--|
|-------------|------------|------------|-------------------|
|o-3---3---3--|-3---3---3--|-3---3---3--|-3--3--3--2--2--2--|
|--3---3---3--|-3---3---3--|-3---3---3--|-------------------|

                                                           x3
|------------|------------|------------|--------------------|
|------------|------------|------------|-------------------o|
|------------|------------|------------|-5--5--5--4--4--4---|
|------------|------------|------------|--------------------|
|-0---0---0--|-0---0---0--|-0---0---0--|-3--3--3--2--2--2--o|
|-0---0---0--|-0---0---0--|-0---0---0--|--------------------|

                                                             4/4
|------------|------------|------------|-------------------|------------------|
|------------|------------|------------|-------------------|------------------|
|------------|------------|------------|-5--5--5--4--4--4--|------------------|
|------------|------------|------------|-------------------|------------------|
|-3---3---3--|-3---3---3--|-3---3---3--|-3--3--3--2--2--2--|-0~---------------|
|-3---3---3--|-3---3---3--|-3---3---3--|-------------------|-0~---------------|

                     3/4
|------------------|------------|------------|------------|------------|------------|------------|
|------------------|------------|------------|------------|------------|------------|------------|
|------------------|------------|------------|------------|------------|------------|------------|
|------------------|------------|------------|------------|------------|------------|------------|
|-0~---------------|------------|------------|------------|------------|------------|------------|
|-0~---------------|------------|------------|------------|------------|------------|------------|

Refrain edit
                                         x3
|--------------------|--------------------|-------------------|----x--x--x--x--x--|
|o-------------------|-------------------o|-------------------|----x--x--x--x--x--|
|--------------------|--------------------|-------------------|----x--x--x--x--x--|
|--2--------2--------|--------------------|-2--------2--------|----x--x--x--x--x--|
|o-0--3--0--0--3--0--|-6--3--0--6--3--0--o|-0--3--0--0--3--0--|-6--x--x--x--x--x--|
|-----3--0-----3--0--|-6--3--0--6--3--0---|----3--0-----3--0--|-6--x--x--x--x--x--|

Outro
|------------|------------------|------------|-------------------|
|------------|------------------|------------|-------------------|
|-2----------|------------------|-2----------|-------------------|
|-0----------|------------------|-0----------|-------------------|
|-0----------|------0--0--0--0--|-0----------|------0--0--0--0-0-|
|-0----------|------0--0--0--0--|-0----------|------0--0--0--0-0-|

|------------|------------------|------------|------------|------------|
|------------|------------------|------------|------------|------------|
|-2----------|------------------|-2----------|------------|------------|
|-0----------|------------------|-0----------|------------|------------|
|-0----------|------0--0--0--0--|-0----------|------------|------------|
|-0----------|------0--0--0--0--|-0----------|------------|------------|

|---------------|-------------------|---------------|-------------------|
|---------------|-------------------|---------------|-------------------|
|---------------|-------------------|---------------|-------------------|
|---------------|-------------------|---------------|----------------2--|
|-3----3--3--3--|-3-----x--x--x--x--|-3----3--3--3--|----------------0--|
|-3----3--3--3--|-3-----x--x--x--x--|-3----3--3--3--|-3h-5--5--5--5-----|

|------------------|
|------------------|
|-2~---------------|
|-0~---------------|
|-0~---------------|
|-0~---------------|
comments
We did not receive enough feedback on this tab! Please rate:
print report bad tab
1 2 3 4 5
I want to post or [tab]
guest
You may want to rate the tab now too:
select rating
Please do not post tabs as comments. Select "correction" instead!