Oops, an error
Loading. Please wait.

Fell Into Your Shoes Tab

version 2
version 2

Whole song

Interactive

3,465 views 9 this week
1 commentread comment
1 2 3 4 5
excellent!
x 9
add to favorites
launch autoscroll
font size
0
reset
how to read this tab
guitar tuner
Tab Pro tools
  • play this tab
  • loop segment
  • change instrument
  • show fretboard
  • metronome
Autoscroll
slow
fast
+/-
esc
set tempo
stop
Contributor
Difficulty
Tuning
intermediate
B F# B E G# C#
-------------------------------------------------------------------------------
                       Fell Into Your Shoes - Chevelle
-------------------------------------------------------------------------------
Tabbed by: Ahrum
Email: themoogledance@hotmail.com

Tuning: Drop B


Intro:
There's a lot of Chevelle's slight pick sliding in the beginning here... It's 
the bass string right at the bridge.

C#|----------------------|
G#|----------------------|
E |----------------------|
B |----------------------|
F#|------7--------7------|
B |--8888-8-8--888-888---|  x6

Chorus:
Constant strumming
C#|-----15--\\\\\\12-----|
G#|----------------------|
E |----------------------|
B |----------------------|
F#|----------------------|
B |----------------------| x4

Verse:
C#|-----------------------------------------------------|
G#|-----------------------------------------------------|
E |---7-7-7-77-77-77-7/10-10-10--10-10-x-12-12-12-12----|
B |---x-x-x-xx-xx-xx-xxx--x--x---x--x--x-x--x--x--x-----|
F#|---5-5-5-55-55-55-5/8--8--8---8--8--x-10-10-10-10----|
B |-----------------------------------------------------|

Pre-Chorus:
C#|-------------------------------------------------------|   |-----|
G#|-------------------------------------------------------|   |-----|
E |-------------------------------------------------------|   |-----|
B |------------------------------------3---3--3-3--10-10--|   |-8-8-|
F#|----------5-3---8-5---3-5---6-5-3-0-3---3--3-3--10-10--|   |-8-8-|
B |----5-3-0-----0-----0-----0---------3---3--3-3--10-10--|x2 |-8-8-|

Repeat Intro
C#|----------------------|
G#|----------------------|
E |----------------------|
B |----------------------|
F#|------7--------7------|
B |--8888-8-8--888-888---|  x6

Repeat Chorus
C#|-----15--\\\\\\12-----|
G#|----------------------|
E |----------------------|
B |----------------------|
F#|----------------------|
B |----------------------| x4

Repeat Verse
C#|-----------------------------------------------------|
G#|-----------------------------------------------------|
E |---7-7-7-77-77-77-7/10-10-10--10-10-x-12-12-12-12----|
B |---x-x-x-xx-xx-xx-xxx--x--x---x--x--x-x--x--x--x-----|
F#|---5-5-5-55-55-55-5/8--8--8---8--8--x-10-10-10-10----|
B |-----------------------------------------------------|

Repeat Pre-Chorus
C#|-------------------------------------------------------|   |-----|
G#|-------------------------------------------------------|   |-----|
E |-------------------------------------------------------|   |-----|
B |------------------------------------3---3--3-3--10-10--|   |-8-8-|
F#|----------5-3---8-5---3-5---6-5-3-0-3---3--3-3--10-10--|   |-8-8-|
B |----5-3-0-----0-----0-----0---------3---3--3-3--10-10--|x2 |-8-8-|

Repeat Intro
C#|----------------------|
G#|----------------------|
E |----------------------|
B |----------------------|
F#|------7--------7------|
B |--8888-8-8--888-888---|  x6

Solo time!
It's constant strumming unless otherwise noted.
                                                          End constant
                                                               V
C#|----15---\13---\12---\8---\5b-------/10---\8---\6-5-6-5-6-5------------|
G#|------------------------------------------------------------6--5b-5b-5-|
E |-----------------------------------------------------------------------|
B |-----------------------------------------------------------------------|
F#|-----------------------------------------------------------------------|
B |-----------------------------------------------------------------------|

                                            resume strumming           STOP!
                                                  V                      V
C#|-------5----------------------5--6-5--8-5-6-5-/10---\8---\6-5-6-5-6-5----|
G#|-5-6-8---8-6-5---5---5---5--------------------------------------------6-5|
E |---------------5---5---5---5---------------------------------------------|
B |-------------------------------------------------------------------------|
F#|-------------------------------------------------------------------------|
B |-------------------------------------------------------------------------|

Repeat Verse
C#|-----------------------------------------------------|
G#|-----------------------------------------------------|
E |---7-7-7-77-77-77-7/10-10-10--10-10-x-12-12-12-12----|
B |---x-x-x-xx-xx-xx-xxx--x--x---x--x--x-x--x--x--x-----|
F#|---5-5-5-55-55-55-5/8--8--8---8--8--x-10-10-10-10----|
B |-----------------------------------------------------|

Repeat Pre-Chorus
C#|-------------------------------------------------------|
G#|-------------------------------------------------------|
E |-------------------------------------------------------|
B |------------------------------------3---3--3-3--10-10--|
F#|----------5-3---8-5---3-5---6-5-3-0-3---3--3-3--10-10--|
B |----5-3-0-----0-----0-----0---------3---3--3-3--10-10--|x2

Pre-Chorus Redux:
                                          STRUMMING! (lightly)
C#|-----------------------------------------|  |-13-|
G#|-----------------------------------------|  |----|
E |-----------------------------------------|  |----|
B |-----------------------------------------|  |----|
F#|----------5-3----8-5----3-5----6-5-3-5---|  |----|
B |---5-3-----------------------------------|x3|----|

Repeat Chorus
C#|-----15--\\\\\\12-----|
G#|----------------------|
E |----------------------|
B |----------------------|
F#|----------------------|
B |----------------------| x4

Ending!
C#|-----------------------|
G#|-----------------------|
E |--/////12b~--\\\\9b~---|
B |-----------------------|
F#|-----------------------|
B |-----------------------|x4  


Thank you for reading!


************************************

| /   slide up
| \   slide down
| h   hammer-on
| p   pull-off
| ~   vibrato
| +   harmonic
| x   Mute note
| b   Bend
| pb  Pre-bend
| br  Bend release
| pbr Pre-bend release
| brb Bend release bend

************************************
comments
print report bad tab
1 comment total.
0 reply
alexacoustic123 wrote on July 14 2010, 11:35 am

Great tab! The solo seems pretty much right. The only thing you're missing in the tab is the rhythm guitar which plays behind all those high notes in the chorus and solo, the chords are: - 8 10 10 (root on F# string) - 7 5 5 (root F# string) - 777 (root B string) -. So it's, D5 then B5 than F#5. Hope you understand what I'm saying lol.
Anyways thanks for tabbing this song out, it's a great song.

I want to post or [tab]
guest
You may want to rate the tab now too:
select rating
Please do not post tabs as comments. Select "correction" instead!