Oops, an error
Loading. Please wait.

Get Some Tab

version 1
version 1

Whole song

Interactive

18,811 views 3 this week
9 commentsread comments
1 2 3 4 5
excellent!
x 12
add to favorites
launch autoscroll
font size
0
reset
how to read this tab
guitar tuner
Tab Pro tools
  • play this tab
  • loop segment
  • change instrument
  • show fretboard
  • metronome
×
Best way to learn
"Get Some"
Autoscroll
slow
fast
+/-
esc
set tempo
stop
Contributor
-------------------------------------------------------------------------------
                             Get Some - Chevelle
-------------------------------------------------------------------------------
Tabbed by: Adam Williams (user: KnivesIsEvil666)
Email: VashTheStampede60@softhome.net

Tuning: Drop B (c# G# E B F B)

* - natural harmonic

Intro pt. 1
e|---------------------------------------------------------------------------|
B|---------------------------------------------------------------------------|
G|-----*5--------------------------------------------------------------------|X2
D|-*4------------------------------------------------------------------------|
A|---------------------------------------------------------------------------|
E|---------------------------------------------------------------------------|

Intro pt. 2
e|---------------------------------------------------------------------------|
B|---------------------------------------------------------------------------|
G|---------------------------------------------------------------------------|
D|----5-4-0------------------------------------------------------------------|
A|----5-4-0-------------33333------------------------------------------------|
E|----5-4-0--22222-0022-------2244-00000-2200-77777--------------------------|
pm    .....

Post intro and post Verse 1 riff
e|---------------------------------------------------------------------------|
B|---------------------------------------------------------------------------|
G|---------------------------------------------------------------------------|
D|-222222------222222------222222------222222-222200555500-------------------|
A|-222222------222222------222222------222222-222200555500-------------------|
E|-222222-2222-222222-2222-222222-2222-222222-222200555500-------------------|

Verse 1
e|---------------------------------------------------------------------------|
B|---------------------------------------------------------------------------|
G|---------------------------------------------------------------------------|X2
D|---------------------------------------------------------------------------|
A|---------------------------------------------------------------------------|
E|-222222222222222222222222222222222222-222200555500-------------------------|

Chorus
e|---------------------------------------------------------------------------|
B|---------------------------------------------------------------------------|
G|--------4444--------4444--------4444------------------4444--------4444-----|
D|-2-2222------2-2222------2-2222------2-22-4-44-0-0000------0-0000----------|
A|-2-2222------2-2222------2-2222------2-22-4-44-0-0000------0-0000----------|
E|-2-2222------2-2222------2-2222------2-22-4-44-0-0000------0-0000----------|

e|---------------------------------------------------------------------------|
B|---------------------------------------------------------------------------|
G|--------4444---------------------------------------------------------------|
D|-0-0000-------0-00-4-40----------------------------------------------------|
A|-0-0000-------0-00-4-40----------------------------------------------------|
E|-0-0000-------0-00-4-40----------------------------------------------------|

Verse 2 pt 1(play part 1 of verse 2 once then play part 2 of verse 2 twice)
e|---------------------------------------------------------------------------|
B|---------------------------------------------------------------------------|
G|---------------------------------------------------------------------------|X2
D|---------------------------------------------------------------------------|
A|---------------------------------------------------------------------------|
E|-222222222222222222222222222222222222-222200555500-------------------------|

Verse 2 pt 2
e|---------------------------------------------------------------------------|
B|---------------------------------------------------------------------------|
G|---------------------------------------------------------------------------|X2
D|-222222222222222222222222222222222222-222200555500-------------------------|
A|-222222222222222222222222222222222222-222200555500-------------------------|
E|-222222222222222222222222222222222222-222200555500-------------------------|
pm .................................................

Bridge/Breakdown pt 1 (played fast, double time feel)
e|---------------------------------------------------------------------------|
B|---------------------------------------------------------------------------|
G|---------------------------------------------------------------------------|
D|-22222-2222-222222-2222-222222-2222-222222-0-2-4---------------------------|
A|-22222-2222-222222-2222-222222-2222-222222-0-2-4---------------------------|X2
E|-22222-2222-222222-2222-222222-2222-222222-0-2-4---------------------------|
pm .............................................

Bridge/Breakdown pt 2 (played after pt 1 X 2)
e|---------------------------------------------------------------------------|
B|---------------------------------------------------------------------------|
G|---------------------------------------------------------------------------|
D|-000000-0000-000000-0000-000000-0000-000000-0-4-0--------------------------|
A|-000000-0000-000000-0000-000000-0000-000000-0-4-0--------------------------|
E|-000000-0000-000000-0000-000000-0000-000000-0-4-0--------------------------|
pm ..............................................

Bridge/Breakdown pt 3 (same as pt 1 but not palm muted)
e|---------------------------------------------------------------------------|
B|---------------------------------------------------------------------------|
G|---------------------------------------------------------------------------|
D|-22222-2222-222222-2222-222222-2222-222222-0-2-4---------------------------|
A|-22222-2222-222222-2222-222222-2222-222222-0-2-4---------------------------|X2
E|-22222-2222-222222-2222-222222-2222-222222-0-2-4---------------------------|


Bridge/Breakdown pt 4 (same as pt 2 but not palm muted)
e|---------------------------------------------------------------------------|
B|---------------------------------------------------------------------------|
G|---------------------------------------------------------------------------|
D|-000000-0000-000000-0000-000000-0000-000000-0-4-0--------------------------|
A|-000000-0000-000000-0000-000000-0000-000000-0-4-0--------------------------|
E|-000000-0000-000000-0000-000000-0000-000000-0-4-0--------------------------|

Outro pt 1
e|---------------------------------------------------------------------------|
B|---------------------------------------------------------------------------|
G|---------------------------------------------------------------------------|
D|---------------------------------------------------------------------------|
A|------------33333----------------------------------------------------------|
E|-22222-0022-------2244-00000-2200-77777-554400-----------------------------|

Outro pt 2
e|---------------------------------------------------------------------------|
B|---------------------------------------------------------------------------|
G|---------------------------------------------------------------------------|
D|-22222-0022-55555-2244-00000-2200-77777-540--------------------------------|X2
A|-22222-0022-33333-2244-00000-2200-77777-540--------------------------------|
E|-22222-0022-------2244-00000-2200-77777-540--------------------------------|
pm                                        ...

End on:
e|--------------------|
B|--------------------|
G|--------------------|
D|----5-4-0-2-222-----|
A|----5-4-0-2-222-----|
E|----5-4-0-2-222-----|
pm    . . .

Song Order:
Intro pt 1 x2
Intro pt 2 x2
Post intro x2
Verse 1 x2
Chorus
Verse 2 pt 1 x2
Verse 2 pt 2 x2
Chorus x2
Bridge pt 1 x2
Bridge pt 2
Bridge pt 3
Bridge pt 4
Chorus x2
Outro pt 1 x2
Outro pt 2 x2

And there you go fellow axe masters <:)
| /  slide up
| \  slide down
| h  hammer-on
| p  pull-off
| ~  vibrato
| x  Mute note
===============================================================================
comments
print report bad tab
9 comments total. Showing first comments.
0 reply
electric7 wrote on March 25 2006, 06:58 pm

this ab is awesoome!

0 reply
electric7 wrote on March 25 2006, 06:58 pm

i mean tab

+1 reply
incubosity wrote on April 27 2006, 10:59 pm

In the chorus, the 4's should be 5's...that is until the very end of the chorus.

I want to post or [tab]
guest
You may want to rate the tab now too:
select rating
Please do not post tabs as comments. Select "correction" instead!