Oops, an error
Loading. Please wait.

Grab Thy Hand Tab

version 1
version 1

Live

Interactive

95 views 1 this week
no commentswrite comment
1 2 3 4 5
please rate
add to favorites
launch autoscroll
font size
0
reset
how to read this tab
guitar tuner
Autoscroll
slow
fast
+/-
esc
set tempo
stop
Help us to improve Ultimate-Guitar.com Take our survey!
×
Tuning: Dropped B,( one and a half steps down, dropped D)

Okay, this IS the right way to play it...I'm 100 percent sure this is right on the money
because I watched Pete play this live...and it also goes right with the song on the
album. Its a badass song with some badass riffs. Enjoy

Intro: play twice
|------------------|------------xxxxxxxx---|
|------------------|------------xxxxxxxx---|
|------------------|------------xxxxxxxx---|
|----------------0-|------------xxxxxxxx---|
|------------------|------------xxxxxxxx---|
|00-00-00-00-0h1---|00-00-00-00-xxxxxxxx---|

play four times
|------------------|
|------------------|
|------------------|
|----------------0-|
|00-00-00-00-------|
|00-00-00-00-0h1---|


Pick these: four times
|-0--0--0--0--1111-|
|--3--3--3--3------|
|---2--2--2--2-----|   "free....free"
|------------------|
|------------------|
|------------------|

then this little riff (distorted)
|--------------|---------------|
|--------------|---------------|
|-3------------|-3-------------|
|---0----------|---0-----------|
|--------------|-----0-(pause)-|
|----0-0000----|-----0-(pause)-|
*play as needed..then this
Verse: (clean)

|--------------|
|--------------|
|-3------------|        "bring me your..."
|---0----------|
|--------------|
|----0-0000----|



then this 3 times
|------------xxxxxxxx---|------------xxxxxxxx---|
|------------xxxxxxxx---|------------xxxxxxxx---|
|------------xxxxxxxx---|------------xxxxxxxx---| "grab thy hand and.."
|------------xxxxxxxx---|00-00-00-00-xxxxxxxx---|
|------------xxxxxxxx---|00-00-00-00-xxxxxxxx---|
|00-00-00-00-xxxxxxxx---|00-00-00-00-xxxxxxxx---|



play 3 times:
|-------------------------|
|-------------------------|
|-------------------------|
|0-0-X-10-0-0-X-8-0-0-8p0-| "Run!"
|0-0-X-10-0-0-X-8-0-0-8p0-|
|0-0-X-10-0-0-X-8-0-0-8p0-|

then

B|0-0-X-10-0-0-X-8-0-0-8p0-| 


then:
|---|
|---|
|---|                "May I...SHOW ME!"
|3--|
|3--|
|3--|

twice
|----------|
|----------|
|-3--------|
|---0------|            "just this once...just this once"
|----------|
|----0-0000|

then 

|---|
|---|
|---|
|3--|               "May I?...Show Me!"
|3--|
|3--|

then four times
|------------------|------------xxxxxxxx---|
|------------------|------------xxxxxxxx---|
|------------------|------------xxxxxxxx---|
|----------------0-|------------xxxxxxxx---|   "grab thy hand and..."
|------------------|------------xxxxxxxx---|
|00-00-00-00-0h1---|00-00-00-00-xxxxxxxx---|

play four times
|------------------|
|------------------|
|------------------|
|----------------0-|  ... "RUN!"
|00-00-00-00-------|
|00-00-00-00-0h1---|

then repeat this stuff over again


|-0--0--0--0--1111-|
|--3--3--3--3------|
|---2--2--2--2-----|   "free....free"
|------------------|
|------------------|
|------------------|

then this 4 times

|--------------|
|--------------|
|-3------------|        
|---0----------|
|--------------|
|----0-0000----|

Outro: play two times...

|0-0-X-10-0-0-X-12-33h55-|-0-0-X-10-0-0-X-12-1313-1212-|


...then play this several times
|------------------------|-----------------------------|
|------------------------|-----------------------------|
|------------------------|-----------------------------|  "WALK!"
|0-0-X-10-0-0-X-12-33h55-|-0-0-X-10-0-0-X-12-1313-1212-| 
|0-0-X-10-0-0-X-12-33h55-|-0-0-X-10-0-0-X-12-1313-1212-|
|0-0-X-10-0-0-X-12-33h55-|-0-0-X-10-0-0-X-12-1313-1212-|

                                         *...13's and 12's
end with


|-------------------------|
|-------------------------|
|-------------------------|
|0-0-X-10-0-0-X-10~(fade)-| 
|0-0-X-10-0-0-X-10~(fade)-|
|0-0-X-10-0-0-X-10~(fade)-|
Suggest correction
Give kudos to tab author, rate the tab!
1 2 3 4 5
comments
print report bad tab
guest
You may want to rate the tab now too:
select rating
Wanna post a correction for this tab? Suggest correction