Oops, an error
Loading. Please wait.

Grab Thy Hand Tab

version 1
version 1

Interactive

2,182 views 3 this week
1 commentread comment
1 2 3 4 5
x 4
add to favorites
launch autoscroll
font size
0
reset
how to read this tab
guitar tuner
Autoscroll
slow
fast
+/-
esc
set tempo
stop
Help us to improve Ultimate-Guitar.com Take our survey!
×
Author
Band: Chevelle
Song: Grab Thy Hand
Album: Wonder Whats Next
Tunning: drop B (B F# B E G# C#)
Tabbed by: Oleander

Heres the right way to play it

Intro: play twice
|------------------|------------xxxxxxxx---|
|------------------|------------xxxxxxxx---|
|------------------|------------xxxxxxxx---|
|----------------0-|------------xxxxxxxx---|
|------------------|------------xxxxxxxx---|
|00-00-00-00-0h1---|00-00-00-00-xxxxxxxx---|

play four times
|------------------|
|------------------|
|------------------|
|----------------0-|
|00-00-00-00-------|
|00-00-00-00-0h1---|


Pick these: four times
|---------------|
|-55-55-5-55--66|
|7--7--7-7---7--|
|---------------|
|---------------|
|---------------|

4 times then break, then eight more
|------|
|------|
|-3----|
|---0--|
|------|
|----0-|

then this 3 times, then play this \/ once
|------------xxxxxxxx---|------------xxxxxxxx---|
|------------xxxxxxxx---|------------xxxxxxxx---|
|------------xxxxxxxx---|------------xxxxxxxx---|
|------------xxxxxxxx---|00-00-00-00-xxxxxxxx---|
|------------xxxxxxxx---|00-00-00-00-xxxxxxxx---|
|00-00-00-00-xxxxxxxx---|00-00-00-00-xxxxxxxx---|



play 3 times:
|------------------|
|------------------|
|----5-----3---3p2-|
|------------------|
|----3-----1---1p0-|
|00-0--00-0--0-----|

then 
|------------------|
|------------------|
|------------------|
|------------------|
|----3-----1---1p0-|
|00-0--00-0--0-----|

then:
|---|
|---|
|---|
|3--|
|3--|
|3--|

twice
|------|
|------|
|-3----|
|---0--|
|------|
|----0-|

then 

|---|
|---|
|---|
|3--|
|3--|
|3--|

then four times
|------------------|------------xxxxxxxx---|
|------------------|------------xxxxxxxx---|
|------------------|------------xxxxxxxx---|
|----------------0-|------------xxxxxxxx---|
|------------------|------------xxxxxxxx---|
|00-00-00-00-0h1---|00-00-00-00-xxxxxxxx---|

play four times
|------------------|
|------------------|
|------------------|
|----------------0-|
|00-00-00-00-------|
|00-00-00-00-0h1---|

then play this 4 times

|---------------|
|-55-55-5-55--66|
|7--7--7-7---7--|
|---------------|
|---------------|
|---------------|

then this 4 times
|------|
|------|
|-3----|
|---0--|
|------|
|----0-|

Outro: play several times
|------------------|------------------|
|------------------|------------------|
|------------------|------------------|
|------------------|------------------|
|----3-----5-------|----3-----5---6p5-|
|00-0--00-0--0-3h5-|00-0--00-0--0-----|

end with
|------------------|------------------|
|------------------|------------------|
|------------------|------------------|
|------------------|----------5-------|
|----3-----5-------|----3-----3-------|
|00-0--00-0--0-3h5-|00-0--00-0--------|
Suggest correction
comments
print report bad tab
1 comment total.
0 reply
jeighkuhb 10 Jan 05, 2014 08:35 PM


Outro: play several times
|------------------|------------------|
|------------------|------------------|
|------------------|------------------|
|------------------|------------------|
|----3-----5-------|----3-----5---6p5-|
|00-0--00-0--0-3h5-|00-0--00-0--0-----|

should be
Outro: play several times
|------------------|------------------|
|------------------|------------------|
|------------------|------------------|
|------------------|------------------|
|----3-----5-------|----3-----5---5h6-|
|00-0--00-0--0-3h5-|00-0--00-0--00----|

guest
You may want to rate the tab now too:
select rating
Wanna post a correction for this tab? Suggest correction