Oops, an error
Loading. Please wait.

Grab Thy Hand Tab

version 3
version 3

Interactive

900 views 1 this week
3 commentsread comments
1 2 3 4 5
1 last vote to show rating
add to favorites
launch autoscroll
font size
0
reset
how to read this tab
guitar tuner
Autoscroll
slow
fast
+/-
esc
set tempo
stop
Help us to improve Ultimate-Guitar.com Take our survey!
×
Tuning
E A D G B E
artist:chevelle
song:grab thy hand
album:wonder what's next

*=palm mute
mf=moderately fast
h=hammer on
p=pull off

now i play this sond in standard but you can put it in drop d if you think it sounds better.

e|--------------------------------|
B|--------------------------------|
G|--------------------------------|
D|--------------------------------|
A|-4-4---4-4----4-4---4-4---------|
E|-6-6---6-6----6-6---6-6---6-7-6-|


e|--------------------------------|
B|--------------------------------|
G|--------------------------------|
D|--------------------------------|
A|-4-4---4-4----4-4---4-4---xxxxx-|
E|-6-6---6-6----6-6---6-6---xxxxx-|
                            *****
then:

e|--------------------------------|
B|--------------------------------|
G|--------------------------------|
D|--------------------------------|
A|-4-4---4-4----4-4---4-4---------|
E|-6-6---6-6----6-6---6-6---6-7-6-|

drums play then:

D|---------------|
A|-6-7-6---------|
E|-6-7-6---------|

e|--------------------------------|
B|--------------------------------|
G|--------------------------------|
D|-4-4---4-4----4-4---4-4---------| (4x)
A|-6-6---6-6----6-6---6-6---6-7-6-|
E|-6-6---6-6----6-6---6-6---6-7-6-|

soft part plays here but it's very hard to hear so if i'm wrong you can fix it.

e|--------------------------------|
B|--------------------------------|
G|-7p6--7p6--7p6--7p6----(alot)---|
D|--------------------------------|
A|--------------------------------|
E|--------------------------------|

then:

e|--------------------------------|
B|--------------------------------|
G|--------------------------------|
D|-------------end hit-------then-|
A|-5-4-2--(4x)---------2-2--5-4-2-|  (8x)
E|-0-0-0---------------2-2--------|

all palm mute
                         mf mf mf mf
e|----------------------------------|
B|------------------------4-4-4-4-4-|
G|------------------------4-4-4-4-4-|
D|-4-4---4-4----4-4--4-4--4-4-4-4-4-| (3x)
A|-6-6---6-6----6-6--6-6------------|
E|-6-6---6-6----6-6--6-6------------|
   * *   * *    * *  * *  * * * * *

e|--------------------------------|
B|--------------------------------|
G|--------------------------------|
D|-4-4-------4-4------------------| (3x)
A|-6-6--6-7--6-6--6-7---3-5-4-6---|
E|-6-6--6-7--6-6--6-7---3-5-4-6---|

then:

e|--------------------------------|
B|--------------------------------|
G|--------------------------------|
D|--------------------------------|
A|-4-4-------4-4--------3-5-4-6---|
E|-6-6--6h7--6-6--6h7-------------|

i don't know the next part,but there is a part in there with

e|-------------|
B|-------------|
G|-------------|
D|-------------| play that (2x)
A|-5-4-2-------|
E|-0-0-0-------|

then:

e|--------------------------------|
B|--------------------------------|
G|--------------------------------|
D|--------------------------------|
A|-4-4---4-4----4-4---4-4---------|
E|-6-6---6-6----6-6---6-6---6-7-6-|


e|--------------------------------|
B|--------------------------------|
G|--------------------------------|
D|--------------------------------|
A|-4-4---4-4----4-4---4-4---xxxxx-|
E|-6-6---6-6----6-6---6-6---xxxxx-|
                            *****
then:

e|--------------------------------|
B|--------------------------------|
G|--------------------------------|
D|--------------------------------|
A|-4-4---4-4----4-4---4-4---------|
E|-6-6---6-6----6-6---6-6---6-7-6-|

drums play then:

D|---------------|
A|-6-7-6---------|
E|-6-7-6---------|

e|--------------------------------|
B|--------------------------------|
G|--------------------------------|
D|-4-4---4-4----4-4---4-4---------| (4x)
A|-6-6---6-6----6-6---6-6---6-7-6-|
E|-6-6---6-6----6-6---6-6---6-7-6-|

remember you can fix this

e|--------------------------------|
B|--------------------------------|
G|-7p6--7p6--7p6--7p6----(alot)---|
D|--------------------------------|
A|--------------------------------|
E|--------------------------------|

e|-------------|
B|-------------|
G|-------------|
D|-------------| (4x)
A|-5-4-2-------|
E|-0-0-0-------|

e|--------------------------------|
B|--------------------------------|
G|--------------------------------|
D|--------------------------------| (3x)
A|-4-4-------4-4--------3-5-4-6---|
E|-6-6--6h7--6-6--6h7-------------|

play this till the end which is like (8x)

e|--------------------------------|
B|--------------------------------|
G|--------------------------------|
D|-4-4-------4-4------------------|
A|-6-6--6-7--6-6--6-7---3-5-4-6---|
E|-6-6--6-7--6-6--6-7---3-5-4-6---|

plz rate,thak you
Suggest correction
Give kudos to tab author, rate the tab!
1 2 3 4 5
comments
print report bad tab
3 comments total.
0 reply
lyingfromyou 144 May 03, 2006 06:49 PM

It's true that i didn't actually play it or anything, but for sure this tab is wrong becuase for sure Pete used dropped B and C# standard on Wonder What's Next.

0 reply
Brittney 14 May 04, 2006 01:39 PM, edited on June 19 2014, 09:32 pm

...

0 reply
ibanezeric82 103 Mar 28, 2012 12:03 PM

Drop B is the tuning.

guest
You may want to rate the tab now too:
select rating
Wanna post a correction for this tab? Suggest correction