Oops, an error
Loading. Please wait.

Grab Thy Hand Tab

version 6
version 6

Interactive

82 views 3 this week
no commentswrite comment
1 2 3 4 5
excellent!
x 2
add to favorites
launch autoscroll
font size
0
reset
how to read this tab
guitar tuner
Tab Pro tools
  • play this tab
  • loop segment
  • change instrument
  • show fretboard
  • metronome
Autoscroll
slow
fast
+/-
esc
set tempo
stop
Contributor
Difficulty
Tuning
novice
B F# B E G# C#
-------------------------------------------------------------------------------
                             Grab Thy Hand - Chevelle
-------------------------------------------------------------------------------
Tabbed by: DirtyDursss

Tuning: Drop B

This is my first tab. The other ones on this song are good but this way is a lot easier to play. 

C#|-----------------------------------------------------|
G#|-----------------------------------------------------|
E |-----------------------------------------------------|
B |---------------------0-------------------------------|
F#|-----------------------------------------------------|
B |--00--00--00--00--0h1------00--00--00--00--xxxxxxxx--|

                              Grab thy hand and......
C#|---------------------------------------------------|
G#|---------------------------------------------------|
E |---------------------------------------------------|
B |---------------------0-----xx--xx--xx--xx-------0--|
F#|---------------------------xx--xx--xx--xx----------|
B |--00--00--00--00--0h1------xx--xx--xx--xx--xx0h1---|
                             |------PM------|

   Look................                   Through..............
C#|--------------------------|         C#|--------------------------|
G#|--------------------------|         G#|--------------------------|
E |--------------------------|         E |--9---9---9---9---9h10----|
B |--00--00--00--00-------0--|  (x4)   B |---7---7---7---7------7---|   (x4)
F#|--00--00--00--00----------|         F#|----0---0---0---0------0--|
B |--00--00--00--00--xx0h1---|         B |--------------------------|

                                  (Switch to Clean)
C#|------------------------------------------------------------------|
G#|------------------------------------------------------------------|
E |------------------------------------------------------------------|
B |--8---8---8---8--0--------------8---8---8---8---8---8---8---8-----|
F#|---0---0---0---0-0---------------0---0---0---0---0---0---0---0----|
B |----0---0---0----0----------------0---0---0---0---0---0---0---0---|
                    ^(Mute After)

   (Distorted) God...............
C#|--------------------------------------------------------------------------------------------------------|
G#|--------------------------------------------------------------------------------------------------------|
E |--------------------------------------------------------------------------------------------------------|
B |--xx--xx--xx--xx------------xx--xx--xx--xx------------xx--xx--xx--xx------------xx--xx--xx--xx-------0--|
F#|--xx--xx--xx--xx------------xx--xx--xx--xx------------xx--xx--xx--xx------------xx--xx--xx--xx----------|
B |--xx--xx--xx--xx--xxxxxxxx--xx--xx--xx--xx--xxxxxxxx--xx--xx--xx--xx--xxxxxxxx--xx--xx--xx--xx--xx0h1---|
    |------PM------|          |------PM------|          |------PM------|          |------PM------|

C#|---------------------------------------------------------------------------------------------------------|
G#|---------------------------------------------------------------------------------------------------------|
E |---------------------------------------------------------------------------------------------------------|
B |--00-0-10--00-0-8--00-8/7---00-0-10--00-0-8--00-8/7---00-0-10--00-0-8--00-8/7----------------------------|
F#|--00-0-10--00-0-8--00-8/7---00-0-10--00-0-8--00-8/7---00-0-10--00-0-8--00-8/7----------------------------|
B |--00-0-10--00-0-8--00-8/7---00-0-10--00-0-8--00-8/7---00-0-10--00-0-8--00-8/7---00-0-10--00-0-8--00-8/7--|

   May I.........
C#|------------------------------------------------------------------------------------------------------------|
G#|------------------------------------------------------------------------------------------------------------|
E |------------------------------------------------------------------------------------------------------------|
B |--3--33--3--3--33333--3--33--3--3--33333---8------------8-------------3--33--3--3--33333--3--33--3--3--33333|
F#|--3--33--3--3--33333--3--33--3--3--33333----0------------0------------3--33--3--3--33333--3--33--3--3--33333|
B |--3--33--3--3--33333--3--33--3--3--33333-----0-00-0h1-0---0-00-0h1-0--3--33--3--3--33333--3--33--3--3--33333|

   Just This Once........
C#|-----------------------------------------------------|
G#|-----------------------------------------------------|
E |-----------------------------------------------------|
B |---------------------0-------------------------------|
F#|-----------------------------------------------------|
B |--00--00--00--00--0h1------00--00--00--00--xxxxxxxx--|


C#|-------------------------------------------------|
G#|-------------------------------------------------|
E |-------------------------------------------------|
B |---------------------0-----xx--xx--xx--xx-----0--|
F#|---------------------------xx--xx--xx--xx--------|
B |--00--00--00--00--0h1------xx--xx--xx--xx--0h1---|


C#|------------------------|         C#|--------------------------|
G#|------------------------|         G#|--------------------------|
E |------------------------|         E |--9---9---9---9---9h10----|
B |--00--00--00--00-----0--|  (x4)   B |---7---7---7---7------7---|  (x4)
F#|--00--00--00--00--------|         F#|----0---0---0---0------0--|
B |--00--00--00--00--0h1---|         B |--------------------------|


C#|----------------------------------------------------------------------|
G#|----------------------------------------------------------------------|
E |----------------------------------------------------------------------|
B |--8---8---8---8-------------------------------------------------------|
F#|---0---0---0---0------------------------------------------------------|
B |----0---0---0---00-0-10--00-0-12--00-3h5--00-0-10--00-0-12--00-12\13--|
                  |--------------------Play Twice----------------------|

C#|--------------------------------------------------------|
G#|--------------------------------------------------------|
E |--------------------------------------------------------|
B |--00-0-10--00-0-12--00-3h5--00-0-10--00-0-12--00-12\13--|  (x7)
F#|--00-0-10--00-0-12--00-3h5--00-0-10--00-0-12--00-12\13--|
B |--00-0-10--00-0-12--00-3h5--00-0-10--00-0-12--00-12\13--|


C#|----------------------------------------------|
G#|----------------------------------------------|
E |----------------------------------------------|
B |--00-0-10--00-0-10--00-3h5--00-0-10--00-0-10--|  (Let Final Note Ring)
F#|--00-0-10--00-0-12--00-3h5--00-0-10--00-0-10--|
B |--00-0-10--00-0-12--00-3h5--00-0-10--00-0-10--|


************************************
| /   slide up
| \   slide down
| h   hammer-on
| p   pull-off
| x   Mute note
************************************
comments
We did not receive enough feedback on this tab! Please rate:
print report bad tab
1 2 3 4 5
I want to post or [tab]
guest
You may want to rate the tab now too:
select rating
Please do not post tabs as comments. Select "correction" instead!