Oops, an error
Loading. Please wait.

Hats Off To The Bull tab

version 1
version 1

Whole song

Interactive

21,408 views 27 this week
2 commentsread comments
1 2 3 4 5
x 4
add to favorites
×
Save as Personal and add changes to this tab that will be seen only by you. Learn more ›
×
You can save this tab as Personal to edit and correct it or add notes. All changes will be seen only by you. Learn more »
launch autoscroll
font size
0
reset
how to read this tab
guitar tuner
edit
Autoscroll
slow
fast
+/-
esc
set tempo
stop
Tuning: Drop c

[Verse 1]
(halfway through you play this note a whole bunch)
D|----------------------------------------------------------------------------|
A|----------------------------------------------------------------------------|
F|-17-------------------------------------------------------------------------|
C|----------------------------------------------------------------------------|
G|----------------------------------------------------------------------------|
C|----------------------------------------------------------------------------|

[Chorus]
D|-------------------------------------------------------------------------|
A|-------------------------------------------------------------------------|
F|-------------------------------------------------------------------------|
C|-15-15-15-15-12-12-12-12-10-10-10-10-12-12-12-12--0---0---0--10-10-10-10-|     (x3)
G|-15-15-15-15-12-12-12-12-10-10-10-10-12-12-12-12--0---0---0--10-10-10-10-|
C|-15-15-15-15-12-12-12-12-10-10-10-10-12-12-12-12--0---0---0--10-10-10-10-|

D|---------------------------------------------------------------|
A|---------------------------------------------------------------|
F|---------------------------------------------------------------|
C|-15-15-15-15-12-12-12-12-10-10-10-10-12-12-12-12--0---0---0--\-|
G|-15-15-15-15-12-12-12-12-10-10-10-10-12-12-12-12--0---0---0--\-|
C|-15-15-15-15-12-12-12-12-10-10-10-10-12-12-12-12--0---0---0--\-|

[Verse 2]
D|-----------------------------------------------|
A|-----------------------------------------------|
F|-11-11-11-11-11-11-11-11-11-11-11-11-11-11h12--|       (x2)
C|-----------------------------------------------|
G|-----------------------------------------------|
C|-----------------------------------------------|

D|-----------------------------------------------------------------------------------------|
A|-----------------------------------------------------------------------------------------|
F|-19-----------------------------------17-------------------------------------------------|
C|-----------------------------------------------------------------------------------------|
G|-----------------------------------------------------------------------------------------|
C|-----------------------------------------------------------------------------------------|

D|-----------------------------------------------------------------------------------------|
A|-----------------------------------------------------------------------------------------|
F|----------7-7-7-7-5--------7-7-5-7b--------11-11-11-11-11-11-11-11-11-11-11-11-11-11h12--|
C|-----------------------------------------------------------------------------------------|
G|-----------------------------------------------------------------------------------------|
C|-----------------------------------------------------------------------------------------|

[Chorus]
D|-------------------------------------------------------------------------|
A|-------------------------------------------------------------------------|
F|-------------------------------------------------------------------------|
C|-15-15-15-15-12-12-12-12-10-10-10-10-12-12-12-12--0---0---0--10-10-10-10-|     (x3)
G|-15-15-15-15-12-12-12-12-10-10-10-10-12-12-12-12--0---0---0--10-10-10-10-|
C|-15-15-15-15-12-12-12-12-10-10-10-10-12-12-12-12--0---0---0--10-10-10-10-|

D|---------------------------------------------------------------|
A|---------------------------------------------------------------|
F|---------------------------------------------------------------|
C|-15-15-15-15-12-12-12-12-10-10-10-10-12-12-12-12--0---0---0--\-|
G|-15-15-15-15-12-12-12-12-10-10-10-10-12-12-12-12--0---0---0--\-|
C|-15-15-15-15-12-12-12-12-10-10-10-10-12-12-12-12--0---0---0--\-|

[Interlude]
D|-----------------------------------------------------------------------------------------------|
A|---11---11----11---11---11---11---11---11---11---11---11---11---12---12---12---12--------------|
F|-7----7----7-----7----7----7----7----7----7----7----7----7----7----7----7----7-----------------|
C|-----------------------------------------------------------------------------------------------|
G|-----------------------------------------------------------------------------------------------|
C|-----------------------------------------------------------------------------------------------|

D|-----------------------------------------------------------------------------------------------|
A|-----------------------------------------------------------------------------------------------|
F|-----------------------------------------------------------------------------------------------|
C|-----------------------------------------------------------------------------------------------|
G|-------10--10--10--10----------8--8--8--8-----------7---7---7---7------5--5--5--5--------------|
C|-0--0-------------------0--0-----------------0--0-----------------0--0-------------------------|

D|-----------------------------------------------------------------------------------------------|
A|---11---11----11---11---11---11---11---11---11---11---11---11---12---12---12---12--------------|
F|-7----7----7-----7----7----7----7----7----7----7----7----7----7----7----7----7-----------------|
C|-----------------------------------------------------------------------------------------------|
G|-----------------------------------------------------------------------------------------------|
C|-----------------------------------------------------------------------------------------------|

D|-----------------------------------------------------------------------------------------------|
A|-----------------------------------------------------------------------------------------------|
F|-----------------------------------------------------------------------------------------------|
C|-----------------------------------------------------------------------------------------------|
G|-------10--10--10--10----------8--8--8--8-----------7---7---7---7------5--5--5--5--------------|
C|-0--0-------------------0--0-----------------0--0-----------------0--0-------------------------|

D|----------------------------------------------------------------------------------|
A|----------------------------------------------------------------------------------|
F|-------12--12--12--12----------10-10-10-10---------9--9--9--9--------8\7--7--7----|
C|----------------------------------------------------------------------------------|
G|-------10--10--10--10----------8--8--8--8----------7--7--7--7--------6\5--5--5----|
C|-0--0------------------0--0-----------------0--0---------------0--0---------------|

D|----------------------------------------------------------------------------------|
A|----------------------------------------------------------------------------------|
F|-------12--12--12--12----------10-10-10-10---------9--9--9--9--------8\7--7--7----|
C|----------------------------------------------------------------------------------|
G|-------10--10--10--10----------8--8--8--8----------7--7--7--7--------6\5--5--5----|
C|-0--0------------------0--0-----------------0--0---------------0--0---------------|

D|---------------------------------------------------------------------------------|
A|---------------------------------------------------------------------------------|
F|-13t------------------------------------------\10t-------------------------------|
C|---------------------------------------------------------------------------------|
G|-11t------------------------------------------\8t--------------------------------|
C|---------------------------------------------------------------------------------|

D|----------------------------------------------------------------------------------|
A|----------------------------------------------------------------------------------|
F|-------13--13--13--13----------10-10-10-10---------9--9--9--9--------8\7--7--7----|
C|----------------------------------------------------------------------------------|
G|-------11--11--11--11----------8--8--8--8----------7--7--7--7--------6\5--5--5----|
C|-0--0------------------0--0-----------------0--0---------------0--0---------------|

D|---------------------------------------------------------------------------------|
A|---------------------------------------------------------------------------------|
F|-13t------------------------------------------\10t-------------------------------|
C|---------------------------------------------------------------------------------|
G|-11t------------------------------------------\8t--------------------------------|
C|---------------------------------------------------------------------------------|

D|---------------------------------------------------------------------------------|
A|---------------------------------------------------------------------------------|
F|-----13--13--13--13-----------10-10-10-10----------9--9--9--9--7\9-9-9\10-10-10--|
C|---------------------------------------------------------------------------------|
G|-----11--11--11--11-----------8--8--8--8-----------7--7--7--7--5\7-7-7\8--8--8---|
C|-0--0------------------0--0-----------------0--0---------------------------------|

D|---------------------------------------------------------------------------------|
A|---------------------------------------------------------------------------------|
F|-15t-------------------------------------------\10t------------------------------|
C|---------------------------------------------------------------------------------|
G|-13t-------------------------------------------\8t-------------------------------|
C|---------------------------------------------------------------------------------|

D|---------------------------------------------------------------------------------|
A|---------------------------------------------------------------------------------|
F|-------13--13--13--13----------10-10-10-10---------9--9--9--9--------8\7--7--7---|
C|---------------------------------------------------------------------------------|
G|-------11--11--11--11----------8--8--8--8----------7--7--7--7--------6\5--5--5---|
C|-0--0------------------0--0-----------------0--0---------------0--0--------------|

D|--------------------------------------------------------------------------------------------|
A|--------------------------------------------------------------------------------------------|
F|---------------------17t--------------------------19t----------------21t--------19----19----|
C|--------------------------------------------------------------------------------------------|
G|---------------------15t--------------------------17t----------------19t--------17-17---17\-|
C|--------------------------------------------------------------------------------------------|

D|--------------------------------------------------------------------------------------------|
A|--------------------------------------------------------------------------------------------|
F|-------13--13--13--13---------17-17-17-17---------19-19-19-19--------21-21-21-21-19---------|
C|--------------------------------------------------------------------------------------------|
G|-------11--11--11--11---------15-15-15-15---------17-17-17-17--------19-19-19-19-17---------|
C|-0--0------------------0--0-----------------0--0---------------0--0-------------------------|

[Pre-Chorus]
D|-------------------------------------------------------------------------|
A|-------------------------------------------------------------------------|
F|-------------------------------------------------------------------------|    (x3)
C|-------------------------------------------------------------------------|
G|-------------------------------------------------------------------------|
C|-15-15-15-15-12-12-12-12-10-10-10-10-12-12-12-12--0---0---0--10-10-10-10-|

D|-------------------------------------------------------------------------|
A|-------------------------------------------------------------------------|
F|-------------------------------------------------------------------------|
C|-------------------------------------------------------------------------|
G|-------------------------------------------------------------------------|
C|-15-15-15-15-12-12-12-12-10-10-10-10-12-12-12-12--0---0---0--------------|

[Chorus]
D|-------------------------------------------------------------------------|
A|-------------------------------------------------------------------------|
F|-------------------------------------------------------------------------|
C|-15-15-15-15-12-12-12-12-10-10-10-10-12-12-12-12--0---0---0--10-10-10-10-|     (x4)
G|-15-15-15-15-12-12-12-12-10-10-10-10-12-12-12-12--0---0---0--10-10-10-10-|
C|-15-15-15-15-12-12-12-12-10-10-10-10-12-12-12-12--0---0---0--10-10-10-10-|

D|--------------------------------------------------------------------------------------|
A|--------------------------------------------------------------------------------------|
F|--------------------------------------------------------------------------------------|
C|-15-15-15-15-12-12-12-12-10-10-10-10-12-12-12-12--10h12-12-12-10h12-12-12-10h12-12-12-|    (x3)
G|-15-15-15-15-12-12-12-12-10-10-10-10-12-12-12-12--10h12-12-12-10h12-12-12-10h12-12-12-|
C|-15-15-15-15-12-12-12-12-10-10-10-10-12-12-12-12--10h12-12-12-10h12-12-12-10h12-12-12-|

D|---------------------------------------------------------------|
A|---------------------------------------------------------------|
F|---------------------------------------------------------------|
C|-15-15-15-15-12-12-12-12-10-10-10-10-12-12-12-12--0---0---0--\-|
G|-15-15-15-15-12-12-12-12-10-10-10-10-12-12-12-12--0---0---0--\-|
C|-15-15-15-15-12-12-12-12-10-10-10-10-12-12-12-12--0---0---0--\-|


************************************

| \  Slide down
| h  Hammer-on
| b  Bend
| t  Tapping

************************************

            
            
Suggest correction
Creating personal tab
Creating personal tab
You can edit any tab online and save it as your Personal.

You can edit, replace or remove any tab part or add personal notes – all changes will be seen only by you.

Personal tabs can be accessed anytime from any device, even offline.
Learn more »
comments
print report bad tab
2 comments total.
0 reply
sqwags 24 Jan 26, 2014 10:00 AM

Excellent tab

0 reply
s7peterson 50 Sep 22, 2014 05:08 PM

****ing awesome

guest
You may want to rate the tab now too:
select rating
Wanna post a correction for this tab? Suggest correction