Oops, an error
Loading. Please wait.

High Visibility Tab

714 views 1 this week
no commentswrite comment
1 2 3 4 5
please rate
add to favorites
launch autoscroll
font size
0
reset
how to read this tab
guitar tuner
Autoscroll
slow
fast
+/-
esc
set tempo
stop
Help us to improve Ultimate-Guitar.com Take our survey!
×
Author
Tabbed by SouthRock21
Email: silly_clown_man@hotmail.com

(HIGH) VISIBILITY BY CHEVELLE is a cover of the song by Helmet. It does sound different 
Helmet's version but thats how covers are supposed to be.

Tuning: D A D G B E (Drop D)
   TUNING TO DROP D:
        Play seventh fret of 6th string then open 5th string.
        Tune the 6th string down at small intervals til the
        7th fret of the 6th string sounds similar to open 5th string.

Intro
(starts with bass)

|----------------|
|----------------|
|----------------|
|----------------| x5     (15 -3p0-'s)
|----------------|
|-3p0--3p0--3p0--|


Verse

|--------------------|--------------|
|--------------------|--------------|
|--------------------|--------------|  x18
|-3--0-0--3-0-0--3-0-|-0-3-0--0-3-0-|
|-3--0-0--3-0-0--3-0-|-0-3-0--0-3-0-|
|-3--0-0--3-0-0--3-0-|-0-3-0--0-3-0-|


Chorus

|------------------------------------|
|------------------------------------|
|------------------------------------|
|-8-8-8-8-8-8-8-8-8-8-8-8---3-0-0-/8-| x4
|-8-8-8-8-8-8-8-8-8-8-8-8---3-0-0-/8-|
|-8-8-8-8-8-8-8-8-8-8-8-8---3-0-0-/8-|

Solo
                                1,2,3|
|-------------------------|----------|
|-------------------------|----------|
|-------------------------|----------|  x4
|-3-0-0-3-0-6-5-5-0-3-0-0-|-8-8-6-0--|
|-3-0-0-3-0-6-5-5-0-3-0-0-|-8-8-6-0--|
|-3-0-0-3-0-6-5-5-0-3-0-0-|-8-8-6-0--|

Chorus

|------------------------------------|
|------------------------------------|
|------------------------------------|
|-8-8-8-8-8-8-8-8-8-8-8-8---3-0-0-/8-| x4
|-8-8-8-8-8-8-8-8-8-8-8-8---3-0-0-/8-|
|-8-8-8-8-8-8-8-8-8-8-8-8---3-0-0-/8-|

|-----|
|-----|
|-----|
|--5~-|
|--5~-|
|--5~-|


(High) Visiblity Lyrics
CHEVELLE
(corresponding to tab above)

(BASS INTRO)
Find something mindless I can advocate
Make up the me I want to be
Then always keep a finger on the pulse
Maintain high visibility
(BASS INTRO ENDS)

(GUITAR)

(VERSE)
Grubbing for any contact I can make
Then dig in deep to get ahead
Line up the prospects that I think
Will take
You know you have to use your head

(CHORUS)
And inability remains protected
The company I keep
Won't let me ever be rejected

(SOLO)

(CHORUS)
And inability remains protected
The company I keep
Won't let me ever be rejected
Suggest correction
Give kudos to tab author, rate the tab!
1 2 3 4 5
comments
print report bad tab
guest
You may want to rate the tab now too:
select rating
Wanna post a correction for this tab? Suggest correction