Oops, an error
Loading. Please wait.

Humanoid Tab

version 2
version 2

Whole song

Interactive

10,754 views 24 this week
6 commentsread comments
1 2 3 4 5
excellent!
x 13
add to favorites
launch autoscroll
font size
0
reset
how to read this tab
guitar tuner
Tab Pro tools
  • play this tab
  • loop segment
  • change instrument
  • show fretboard
  • metronome
×
Best way to learn
"Humanoid"
Autoscroll
slow
fast
+/-
esc
set tempo
stop
Contributor
Artist: Chevelle
Song: Humanoid
Album: Vena Sera
Tuning: (A# F A# D# G C)
Transcribed by: Shaun Jackson (shaun.jackson1@hotmail.com)

Notes: Everything is pretty straightforward here, but it
may take a few listens to get this song down perfectly.
I didn't mark the palm muted strums in the intro, verse
and bridge riffs, so I hope you can figure that out yourself.
That's about it. This is a very fun song to play, enjoy!


[INTRO 1], x4
C |--------------------------------------------------------------------|
G |--------------------------------------------------------------------|
D#|--------------------------------------------------------------------|
A#|-------7-------7---7-7-7--------------------------------------------|
F |-------0-------0---0-0-0--------------------------------------------|
A#|-5-5-5---5-5-5---5--------------------------------------------------|

[INTRO 2], x2
C |------------------------|-------------------------------------------|
G |----------x3------------|-------------------------------------------|
D#|------------------------|-------------------------------------------|
A#|------------------------|x8-x8--x5-x6-------------------------------|
F |------------------------|x8-x8--x5-x6-------------------------------|
A#|-5-0-3-5-0-3-5-0-5-8-0-3|x8-x8--x5-x6-------------------------------|

[VERSE]
C |-------------------------------------------------|------------------|
G |------------------------(x4)---------------------|------------------|
D#|-------------------------------------------------|------------------|
A#|-------7---7-------7---7-------7-5---------------|-x8-x8-x5-x6------|
F |-------0---0-------0---0-----------5-------------|-x8-x8-x5-x6------|
A#|-5-5-5---5---5-5-5---5---5-5-5-------5-6-7-8-7-6-|-x8-x8-x5-x6------|

[CHORUS], x2
C |--------------------------------------------------------------------|
G |--------------------------------------------------------------------|
D#|-5/77777777777-7/1010101010101010101010-----------------------------|
A#|-5/77777777777-7/1010101010101010101010-888888888888-777777777777---|
F |-3/55555555555-5/8-8-8-8-8-8-8-8-8-8-8--888888888888-777777777777---|
A#|----------------------------------------888888888888-777777777777---|

[PRE-VERSE]
C |------------------------|-------------------------------------------|
G |---------(x3)-----------|-------------------------------------------|
D#|------------------------|-------------------------------------------|
A#|------------------------|x8-x8--x5-x6-------------------------------|
F |------------------------|x8-x8--x5-x6-------------------------------|
A#|-5-0-3-5-0-3-5-0-5-8-0-3|x8-x8--x5-x6-------------------------------|

[VERSE]
C |-------------------------------------------------|------------------|
G |------------------------(x4)---------------------|------------------|
D#|-------------------------------------------------|------------------|
A#|-------7---7-------7---7-------7-5---------------|-x8-x8-x5-x6------|
F |-------0---0-------0---0-----------5-------------|-x8-x8-x5-x6------|
A#|-5-5-5---5---5-5-5---5---5-5-5-------5-6-7-8-7-6-|-x8-x8-x5-x6------|

[CHORUS], x2
C |--------------------------------------------------------------------|
G |--------------------------------------------------------------------|
D#|-5/77777777777-7/1010101010101010101010-----------------------------|
A#|-5/77777777777-7/1010101010101010101010-888888888888-777777777777---|
F |-3/55555555555-5/8-8-8-8-8-8-8-8-8-8-8--888888888888-777777777777---|
A#|----------------------------------------888888888888-777777777777---|

[BRIDGE 1]
C |-------------|------------------------------------------------------|
G |---(x4)------|------------------------------------------------------|
D#|-------------|-------5h77777-7h888888888---------5h77777------------|
A#|-------------|555555----------------------555555----------5-5-5-5---|
F |-5-555-5-----|--------------------------------------------5-5-5-5---|
A#|-5-555---7-8-|--------------------------------------------5-5-5-5---|

[BRIDGE 2], x4
C |--------------------------------------------------------------------|
G |--------------------------------------------------------------------|
D#|--------------------------------------------------------------------|
A#|----------999---------------101010----------------------------------|
F |-7777-xxx-777-7-10-8888-xxx-8-8-8--8-10-----------------------------|
A#|-7777-xxx-----7-10-8888-xxx--------8-10-----------------------------|

[BRIDGE 3]
C |----------------------------|-------------------------|------|------|
G |----------(x4)--------------|----------(x2)-----------|------|--0===|
D#|----------------------------|-------------------------|-(x20)|------|
A#|-------9------------10------|-------7-----------8-----|--5---|-x----|
F |-------7------------8-------|-------5-----------6-----|--5---|-x----|
A#|-7-777---7-10-8-888----8-10-|-5-555---5-8-6-666---6-8-|--5---|-x----|

[CHORUS], x4
C |--------------------------------------------------------------------|
G |--------------------------------------------------------------------|
D#|-5/77777777777-7/1010101010101010101010-----------------------------|
A#|-5/77777777777-7/1010101010101010101010-888888888888-777777777777---|
F |-3/55555555555-5/8-8-8-8-8-8-8-8-8-8-8--888888888888-777777777777---|
A#|----------------------------------------888888888888-777777777777---|

[OUTRO]
C |------------------------|-------------------------------------------|
G |---------(x3)-----------|-------------------------------------------|
D#|------------------------|-------------------------------------------|
A#|------------------------|x8-x8--x5-x6-5-3-0==============~~~~~~~~~~~|
F |------------------------|x8-x8--x5-x6-5-3-0==============~~~~~~~~~~~|
A#|-5-0-3-5-0-3-5-0-5-8-0-3|x8-x8--x5-x6-5-3-0==============~~~~~~~~~~~|


SYMBOLS
x - palm mute
\ - slide down
/ - slide up
= - hold note
~ - vibrato




comments
print report bad tab
6 comments total. Showing first comments.
0 reply
PMaurer wrote on October 17 2007, 11:06 am

Very nice tab shaun :D.

0 reply
gdw6813 wrote on January 20 2008, 11:29 pm

Awesome tab, keep it up.

0 reply
Withateethuh wrote on February 8 2008, 05:31 pm

**** that I'm not tuning any lower than B. but good tab.

I want to post or [tab]
guest
You may want to rate the tab now too:
select rating
Please do not post tabs as comments. Select "correction" instead!