Oops, an error
Loading. Please wait.

I Get It Bass Tab

version 1
version 1

Whole song

Interactive

8,406 views 6 this week
4 commentsread comments
1 2 3 4 5
x 3
add to favorites
launch autoscroll
font size
0
reset
guitar tuner
Autoscroll
slow
fast
+/-
esc
set tempo
stop
Help us to improve Ultimate-Guitar.com Take our survey!
×
Author
Difficulty
intermediate
Verse: (0:03)
G |-------------------------------------------------------------------|
D |-------------------------------------------------------------------|
A |---1-1-----1-1-3/4---1-1-----1-1-3/4-------------------------------|
Eb|-2-----2-2---------2-----2-2---------2-5-5-2-2-5-5-5-0-0-0-0-0-0-0-|

G |-----------------------------------------------------------------|
D |-----------------------------------------------------------------|
A |-----1-1-----1-1-3/4---1-1-----1-1-3/4---------------------------|
Eb|-0-2-----2-2---------2-----2-2---------2-5-5-2-2-5-5-5-0-0-0-0-0-|

Chorus: (0:18)
G |-------------------------------------------------------------------|
D |-------------------------------------------------------------------|
A |---1-1-----1-1-3/4---1-1-----1-1-3/4-------------------------------|
Eb|-2-----2-2---------2-----2-2---------2-5-5-2-2-5-5-5-0-0-0-0-0-0-0-|

G |-----------------------------------------------------------------|
D |-----------------------------------------------------------------|
A |-----1-1-----1-1-3/4---1-1-----1-1-3/4---------------------------|
Eb|-0-2-----2-2---------2-----2-2---------2-5-5-2-2-5-5-5-0-0-0-0-0-|

G |-----------|
D |-----------|
A |-------1/7-|
Eb|-0-0-0-----|

Verse: (0:41)
G |-------------------------------------------------------------------|
D |-------------------------------------------------------------------|
A |---1-1-----1-1-3/4---1-1-----1-1-3/4-------------------------------|
Eb|-2-----2-2---------2-----2-2---------2-5-5-2-2-5-5-5-0-0-0-0-0-0-0-|

G |-------------------------------------------------------------------|
D |-------------------------------------------------------------------|
A |-----1-1-----1-1-3/4---1-1-----1-1-3/4-----------------------------|
Eb|-0-2-----2-2---------2-----2-2---------2-5-5-2-2-5-5-5-0-0-0-0-0-0-|

G |-------------------------------------------------------------------|
D |-------------------------------------------------------------------|
A |-------1-1-----1-1-3/4---1-1-----1-1-3/4---------------------------|
Eb|-0-0-2-----2-2---------2-----2-2---------2-5-5-2-2-5-5-5-0-0-0-0-0-|

G |-------------------------------------------------------------------|
D |-------------------------------------------------------------------|
A |---------1-1-----1-1-3/4-----1-1-----1-1-3/4-----------------------|
Eb|-0-0-0-2-----2-2---------2-2-----2-2---------2-5-5-2-2-5-5-5-0-0-0-|

G |-----|
D |-----|
A |-----|
Eb|-0-0-|

Chorus: (1:12)

Verse: (1:35) – Played the same as the verse at 0:41

Chorus: (2:06)
G |-------------------------------------------------------------------|
D |-------------------------------------------------------------------|
A |---1-1-----1-1-3/4---1-1-----1-1-3/4-------------------------------|
Eb|-2-----2-2---------2-----2-2---------2-5-5-2-2-5-5-5-0-0-0-0-0-0-0-|

G |-------------------------------------------------------------------|
D |-------------------------------------------------------------------|
A |-----1-1-----1-1-3/4---1-1-----1-1-3/4-------------------------5/6-|
Eb|-0-2-----2-2---------2-----2-2---------2-5-5-2-2-5-5-5-0-0-0-0-----|

G |-----|
D |-----|
A |-5/6-|
Eb|-----|

Bridge: (2:22)
G |--------------------------------------------|
D |--------------------------------------------|
A |-4--6--8—-11/4--3--------4--6--8—11/16—15/--|
Eb|-------------------2--5-------------------2-|

G |-------------------|
D |-------------------|
A |---1-1-----1-1-3/4-|
Eb|-2-----2-2---------| (x7)

G |-----------|
D |-----------|
A |---1-1-----|
Eb|-2-----2-2-|

Chorus: (3:08)
G |-------------------------------------------------------------------|
D |-------------------------------------------------------------------|
A |---1-1-----1-1-3/4---1-1-----1-1-3/4-------------------------------|
Eb|-2-----2-2---------2-----2-2---------2-5-5-2-2-5-5-5-0-0-0-0-0-0-0-|

G |-----------------------------------------------------------------|
D |-----------------------------------------------------------------|
A |-----1-1-----1-1-3/4---1-1-----1-1-3/4---------------------------|
Eb|-0-2-----2-2---------2-----2-2---------2-5-5-2-2-5-5-5-0-0-0-0-0-|

G |-------|
D |-------|
A |-------|
Eb|-0-0-0-|

G |-------------------|
D |-------------------|
A |---1-1-----1-1-3/4-|
Eb|-2-----2-2---------| (x3)

G |-----------|
D |-----------|
A |---1-1-----|
Eb|-2-----2-2-|
Suggest correction
Give kudos to tab author, rate the tab!
1 2 3 4 5
comments
print report bad tab
4 comments total. Showing first comments.
-1 reply
wenkie420 10 Jul 30, 2008 04:06 PM

great tab

0 reply
EvilAngel93 263 Jan 20, 2009 10:11 PM

hmmm... good tab, plays well but did you know dean plays in A#?

0 reply
SK8nBASS 1,851 Oct 25, 2009 10:09 AM

sounds great

guest
You may want to rate the tab now too:
select rating
Wanna post a correction for this tab? Suggest correction