Oops, an error
Loading. Please wait.

I Get It Tab

version 1
version 1

Whole song

Interactive

38,581 views 24 this week
15 commentsread comments
1 2 3 4 5
excellent!
x 8
add to favorites
launch autoscroll
font size
0
reset
how to read this tab
guitar tuner
Tab Pro tools
  • play this tab
  • loop segment
  • change instrument
  • show fretboard
  • metronome
×
Best way to learn
"I Get It"
Autoscroll
slow
fast
+/-
esc
set tempo
stop
Title: I get It
Artist: Chevelle
Album: Vena Sera

tuning : drop A#  low to high (A#, F, A#, D#, G, C)

Intro Acoustic

C|------------------------------------------------------------------------|
G|-6666--------5555------11111111------6666-------5555------11111111------|
D|-7777--------5555------12121212------7777-------5555------12121212------|
A|-7777-(x16)--5555-(x4)-12121212-(x4)-7777-(x8)--5555-(x4)-12121212-(x3)-|
F|-5555--------3333------10101010------5555-------3333------10101010------|
A|------------------------------------------------------------------------|


Chorus
	X 2
C|-----------------------------------------------------------------|
G|-----------------------------------------------------------------|	   
D|-----------------------------------------------------------------| 
A|---7-7-----7---7---7-7-----7---7---5-5-----5---5-----------------|
F|-0-5-5-0-0-5-0-5-0-5-5-0-0-5-0-5-0-3-3-0-0-3-0-3-0-5-5-0-0-5-0-5-|
A|-0-----0-0---0---0-----0-0---0---0-----0-0---0---0-5-5-0-0-5-0-5-|

then!

|---------|	|---------------|
|--6------|	|---------------|
|--7------| and |---------------|
|--7-(x16)|	|---5-7~---5-7~-|
|--5------|	|-5------5------|
|---------|	|---------------|


verse Acoustic
	(x2)
C|-----------------------------------------------------------------------|
G|-6666-------5555------11111111------6666-------5555------11111111------|
D|-7777-------5555------12121212------7777-------5555------12121212------|
A|-7777-(x8)--5555-(x4)-12121212-(x4)-7777-(x8)--5555-(x4)-12121212-(x4)-|
F|-5555-------3333------10101010------5555-------3333------10101010------|
A|-----------------------------------------------------------------------|

verse pt 2 dist.
		(x2)
C|-----------------------------------------------------------------------|
G|-----------------------------------------------------------------------|
D|---7-7-----7---7---7-7-----7---7---5-5-----5---5---12-12-----12---10---|
A|-----------------------------------------------------------------------|
F|---5-5-----5---5---5-5-----5---5---3-3-----3---3---10-10-----10---8----|
A|-0-----0-0---0---0-----0-0---0---0-----0-0---0---0-------0-0----0------|


Chorus
	X 2
C|-----------------------------------------------------------------|
G|-----------------------------------------------------------------|	   
D|-----------------------------------------------------------------| 
A|---7-7-----7---7---7-7-----7---7---5-5-----5---5-----------------|
F|-0-5-5-0-0-5-0-5-0-5-5-0-0-5-0-5-0-3-3-0-0-3-0-3-0-5-5-0-0-5-0-5-|
A|-0-----0-0---0---0-----0-0---0---0-----0-0---0---0-5-5-0-0-5-0-5-|

then!

|---------|	|---------------|
|--6------|	|---------------|
|--7------| and |---------------|
|--7-(x16)|	|---5-7~---5-7~-|
|--5------|	|-5------5------|
|---------|	|---------------|


verse Acoustic
	(x2)
C|-----------------------------------------------------------------------|
G|-6666-------5555------11111111------6666-------5555------11111111------|
D|-7777-------5555------12121212------7777-------5555------12121212------|
A|-7777-(x8)--5555-(x4)-12121212-(x4)-7777-(x8)--5555-(x4)-12121212-(x4)-|
F|-5555-------3333------10101010------5555-------3333------10101010------|
A|-----------------------------------------------------------------------|

verse pt 2 dist.
		(x2)
C|-----------------------------------------------------------------------|
G|-----------------------------------------------------------------------|
D|---7-7-----7---7---7-7-----7---7---5-5-----5---5---12-12-----12---10---|
A|-----------------------------------------------------------------------|
F|---5-5-----5---5---5-5-----5---5---3-3-----3---3---10-10-----10---8----|
A|-0-----0-0---0---0-----0-0---0---0-----0-0---0---0-------0-0----0------|


Chorus
	X 2
C|-------------------------------------------------------------------------|
G|-------------------------------------------------------------------------|	   
D|-------------------------------------------------------------------------| 
A|---7-7-----7---7---7-7-----7---7---5-5-----5---5-----------------5/7-5/7-|
F|-0-5-5-0-0-5-0-5-0-5-5-0-0-5-0-5-0-3-3-0-0-3-0-3-0-5-5-0-0-5-0-5-5/7-5/7-|
A|-0-----0-0---0---0-----0-0---0---0-----0-0---0---0-5-5-0-0-5-0-5-5/7-5/7-|


Bridge
     (x2)
C|---------------------------------------------------------------------------------|
G|---------------------------------------------------------------------------------|
D|---------------------------------------------------------------------------------|
A|-333333333333-5555-777777777777-10101010-333333333333-5555-777777777777-10101010-|
F|-333333333333-5555-777777777777-10101010-333333333333-5555-777777777777-10101010-|
A|-333333333333-5555-777777777777-10101010-333333333333-5555-777777777777-10101010-|

contin. bridge

C|---------------------------------|
G|---------------------------------|
D|---7-7-----7---7---7-7-----7---7-|
A|---------------------------------|
F|---5-5-----5---5---5-5-----5---5-|
A|-0-----0-0---0---0-----0-0---0---|



Chorus
	X 2
C|-----------------------------------------------------------------|
G|-----------------------------------------------------------------|	   
D|-----------------------------------------------------------------| 
A|---7-7-----7---7---7-7-----7---7---5-5-----5---5-----------------|
F|-0-5-5-0-0-5-0-5-0-5-5-0-0-5-0-5-0-3-3-0-0-3-0-3-0-5-5-0-0-5-0-5-|
A|-0-----0-0---0---0-----0-0---0---0-----0-0---0---0-5-5-0-0-5-0-5-|


C|------------------------------------------------------------------------------------------|
G|------------------------------------------------------------------------------------------|
D|-10101010101010101010-14141414141414141414141414-999999999999999-121212121212121212121212-|
A|------------------------------------------------------------------------------------------|
F|------------------------------------------------------------------------------------------|
A|------------------------------------------------------------------------------------------|

outro

C|-----------------------------------|-----|
G|-----------------------------------|-----|
D|o---7-7-----7---7---7-7-----7---7-o|-----|
A|-----------------------------------|--0~-|
F|o---5-5-----5---5---5-5-----5---5-o|--0~-|
A|--0-----0-0---0---0-----0-0---0----|--0~-|


comments
print report bad tab
15 comments total. Showing first comments.
0 reply
Metal_Hed_23 wrote on August 26 2007, 02:32 am

thank you for tabbing this

0 reply
kevmania69 wrote on September 8 2007, 11:37 am

Great tab. Great song. Great job. Thank-you.

0 reply
gdw6813 wrote on September 12 2007, 11:16 pm

Good tab. I almost got around to making one myself but it looks like you got it down pretty good. One suggestion, I think for the acoustic part, instead of the
----
-11-
-12-
-12-
-10-
----
it should be
---
-8-
-7-
-7-
-5-
---
If you watch videos on youtube for this song it looks like his hand are around the 5th fret, and I also saw this song played live (only about 10 ft. from the stage) and I'm pretty sure that's what he plays. I'm not sure about the verse pt. 2 part either, it's something around the 12th fret though. I play something different, I can let you know what I play if you want. Other than that, great tab..keep it up.

I want to post or [tab]
guest
You may want to rate the tab now too:
select rating
Please do not post tabs as comments. Select "correction" instead!