Oops, an error
Loading. Please wait.

I Get It Bass

version 2
version 2

Whole song

Interactive

3,072 views 1 this week
1 commentread comment
1 2 3 4 5
2 more votes to show rating
add to favorites
×
Save as Personal and add changes to this tab that will be seen only by you. Learn more ›
×
You can save this tab as Personal to edit and correct it or add notes. All changes will be seen only by you. Learn more »
save as personal
new!
launch autoscroll
font size
0
reset
guitar tuner
backing track
0:00
0:00
Autoscroll
slow
fast
+/-
esc
set tempo
stop
Difficulty
intermediate
This song probably sounds better tuned down to drop A# or whatever, but this is
for those of us too lazy to tune down. :]

INTRO
G----------------------------|
D--8--8---8--8----6-6--------|
A------68-----68-----6-6-4-4-|  2x
E-6-66---6-66----------------|

CHORUS
G----------------------------|
D--8--8---8--8----6--6-------|
A------68-----68--------6--6-|  2x
E-6-66---6-66---6--66-6--66--|

Between the CHORUS & VERSE, hold a A# on the E string then slide to the end of
the string before starting the verse.

VERSE
G----------------------------|
D--8--8---8--8----6-6--------|
A------68-----68-----6-6-4-4-|  2x
E-6-66---6-66----------------|

G----------------------------|
D--8--8---8--8----6--6-------|
A------68-----68--------6--6-|  2x
E-6-66---6-66---6--66-6--66--|

Play the CHORUS, VERSE, then CHORUS again.

BRIDGE (play the regular chorus, then when Pete says "imaginary" hit a G# then go into the bridge)
G----------------------------1-3-|
D----------------3-3-3-3-3-3-----|
A-4-4-4-4-4-4-3-3----------------|  4x
E--------------------------------|

G----------------|
D--8--8---8--8---|
A------68-----68-|  4x
E-6-66----6-66---|

Play the CHORUS, but after Pete says "imaginary", play quarter-note A# until the end.

Cheers, Becky.
Suggest correction
Give kudos to tab author, rate the tab!
1 2 3 4 5
comments
print report bad tab
1 comment total.
0 reply
bassmaniak 10 Dec 30, 2009 10:37 AM

100% rong.

guest
Wanna post a correction for this tab? Suggest correction