Oops, an error
Loading. Please wait.

In Debt To Earth Tab

version 1
version 1

Whole song

Interactive

4,932 views 12 this week
6 commentsread comments
1 2 3 4 5
excellent!
x 10
add to favorites
launch autoscroll
font size
0
reset
how to read this tab
guitar tuner
Autoscroll
slow
fast
+/-
esc
set tempo
stop
Help us to improve Ultimate-Guitar.com Take our survey!
×
Contributor
Tuning
B F# B E G# C#
Artist: Chevelle
Song: In Debt To Earth
Tuning: B F# B E G# C# (Drop B)

Verse (Clean)
C#-------------------------------------------------|
G#-------------------------------------------------|
E--------9-----------------------------------------|
B--------9-----------5-----------------------------| 1x
F#-7-7-7-7-7-7-------5-----2-2-2-2-2-2-3-3-3-5-5-5-|
B--------------5-5-5-5-5-5-------------------------|

C#-------------------------------------------------|
G#-------------------------------------------------|
E--------9-----------------------------------------|
B--------9-----------5-----------------------------| 3x
F#-7-7-7-7-7-7-------5-----5-5-5-5-5-5-5-5-5-5-5-5-|
B--------------5-5-5-5-5-5-------------------------|

Pre-Chorus
C#-------------------------------------------------|
G#-------------------------------------------------|
E--------------------------------------------------|
B--9-9-9-9-9-9-9-9-9-9-9-9-------------------------|
F#-7-7-7-7-7-7-7-7-7-7-7-7-5-5-5-5-5-5-5-5-5-5-5-5-|
B--------------------------5-5-5-5-5-5-5-5-5-5-5-5-|

C#-------------------------------------------------|
G#-------------------------------------------------|
E--------------------------------------------------|
B--7-7-7-7-7-7-7-7-7-7-7-7-7-7-7-7-7-7-7-7-7-7-7-7-|
F#-5-5-5-5-5-5-5-5-5-5-5-5-5-5-5-5-5-5-5-5-5-5-5-5-|
B--------------------------------------------------|

Chorus
C#-------------------------------------------------------|
G#-------------------------------------------------------|
E--------------------------------------------------------|
B--5-5-5-5-5-5-7-7-7-7-7-7-9-9-9-9-9-9-12-12-12-12-12-12-|
F#-3-3-3-3-3-3-5-5-5-5-5-5-7-7-7-7-7-7-10-10-10-10-10-10-|
B--------------------------------------------------------|

Bridge (Distortion kicks in)
C#-------------------------|
G#-------------------------|
E--------------------------|
B--------------------------|
F#-------------------------|
B--0-2-2-7-5-5-5-8-8-8-5-7-|

C#-------------------------|
G#-------------------------|
E--------------------------|
B--------------------------|
F#-------------------------|
B--0-2-2-7-5-5-5-8-8-8-7-5-|

C#-------------------------|
G#-------------------------|
E--------------------------|
B--0-2-2-7-5-5-5-8-8-8-5-7-|
F#-0-2-2-7-5-5-5-8-8-8-5-7-|
B--0-2-2-7-5-5-5-8-8-8-5-7-|

C#-------------------------|
G#-------------------------|
E--------------------------|
B--0-2-2-7-5-5-5-8-8-8-7-5-|
F#-0-2-2-7-5-5-5-8-8-8-7-5-|
B--0-2-2-7-5-5-5-8-8-8-7-5-|

Outro
C#-----------------------------------------------------------|
G#-----------------------------------------------------------|
E------------------------------------------------------------|
B--2-x-x-2-x-x-2-x-x-2-x-x-2-2-x-2-2-x-2-2-x-2-2-x-2-0-2-7-5-|
F#-2-x-x-2-x-x-2-x-x-2-x-x-2-2-x-2-2-x-2-2-x-2-2-x-2-0-2-7-5-|
B--2-x-x-2-x-x-2-x-x-2-x-x-2-2-x-2-2-x-2-2-x-2-2-x-2-0-2-7-5-|
comments
print report bad tab
6 comments total. Showing first comments.
0 reply
365_days_gone 6,948 wrote on April 15 2007, 02:54 pm

This song does not exist...

0 reply
RockMusicFan 625 wrote on April 15 2007, 07:55 pm

Actually it does you fool.

0 reply
RockMusicFan 625 wrote on April 21 2007, 11:13 am

And this tab is flawless, good job!

I want to post or [tab]
guest
You may want to rate the tab now too:
select rating
Please do not post tabs as comments. Select "correction" instead!