Oops, an error
Loading. Please wait.

In Debt To Earth Tab

version 2
version 2

Whole song

Interactive

945 views 1 this week
no commentswrite comment
1 2 3 4 5
accurate
x 5
add to favorites
launch autoscroll
font size
0
reset
how to read this tab
guitar tuner
Autoscroll
slow
fast
+/-
esc
set tempo
stop
Help us to improve Ultimate-Guitar.com Take our survey!
×
Author
Difficulty
Tuning
intermediate
D A D G B E
The other tab is somewhat off, but the biggest thing: the tab doesn't have to be in Drop 
Like most songs offa Vena Sera, they can be played in Drop D.

Please note, "In Debt To Earth" is a bonus iTunes track. Very good. Got limewire? 
it.

~ = Let it ring

VERSE
e|------------------------------------------------------------------------------|
B|------------------------------------------------------------------------------|
G|-------6--------------------------------------6-------------------------------|
D|-------6--------2-----------------------------6--------2----------------------|
A|-4-4-4-4--------2-----------------------4-4-4-4--------2----------------------|
D|----------2-2-2-2--6-6-6-6-6-6-7-7-9-9-----------2-2-2-2--9-9-9-9-9-9-9-9-9-9-|

e|------------------------------------------------------------------------------|
B|------------------------------------------------------------------------------|
G|-------6--------------------------------------6-------------------------------|    2X
D|-------6--------2-----------------------------6--------2----------------------|
A|-4-4-4-4--------2-----------------------4-4-4-4--------2----------------------|
D|----------2-2-2-2--9-9-9-9-9-9-9-9-9-9-----------2-2-2-2--9-9-9-9-9-9-9-9-9-9-|

CHORUS
e|--------------------------------------------------------------------------------------|
B|--------------------------------------------------------------------------------------|

   2X
D|-6-6-6-6-6-6-6-6-6-6----------------------4-4-4-4-4-4-4-4-4-4-4-4-4-4-4-4-4-4-4-4-4-4-|
A|-4-4-4-4-4-4-4-4-4-4--2-2-2-2-2-2-2-2-2-2-2-2-2-2-2-2-2-2-2-2-2-2-2-2-2-2-2-2-2-2-2-2-|
D|----------------------2-2-2-2-2-2-2-2-2-2---------------------------------------------|

VERSE
e|------------------------------------------------------------------------------|
B|------------------------------------------------------------------------------|
G|-------6--------------------------------------6-------------------------------|
D|-------6--------2-----------------------------6--------2----------------------|
A|-4-4-4-4--------2-----------------------4-4-4-4--------2----------------------|
D|----------2-2-2-2--6-6-6-6-6-6-7-7-9-9-----------2-2-2-2--9-9-9-9-9-9-9-9-9-9-|

e|------------------------------------------------------------------------------|
B|------------------------------------------------------------------------------|
G|-------6--------------------------------------6-------------------------------|    2X
D|-------6--------2-----------------------------6--------2----------------------|
A|-4-4-4-4--------2-----------------------4-4-4-4--------2----------------------|
D|----------2-2-2-2--9-9-9-9-9-9-9-9-9-9-----------2-2-2-2--9-9-9-9-9-9-9-9-9-9-|

CHORUS
e|--------------------------------------------------------------------------------------|
B|--------------------------------------------------------------------------------------|

   2X
D|-6-6-6-6-6-6-6-6-6-6----------------------4-4-4-4-4-4-4-4-4-4-4-4-4-4-4-4-4-4-4-4-4-4-|
A|-4-4-4-4-4-4-4-4-4-4--2-2-2-2-2-2-2-2-2-2-2-2-2-2-2-2-2-2-2-2-2-2-2-2-2-2-2-2-2-2-2-2-|
D|----------------------2-2-2-2-2-2-2-2-2-2---------------------------------------------|

BRIDGE
e|----------------------------------------------------------------------------------------|
B|----------------------------------------------------------------------------------------|
G|-2-2-2-2-2--4-4-4-4-4--6-6-6-6-6--9-9-9-9-9--2-2-2-2-2--4-4-4-4-4--6-6-6-6-6--9-9-9-9-9-|
D|-2-2-2-2-2--4-4-4-4-4--6-6-6-6-6--9-9-9-9-9--2-2-2-2-2--4-4-4-4-4--6-6-6-6-6--9-9-9-9-9-|
A|-0-0-0-0-0--2-2-2-2-2--4-4-4-4-4--7-7-7-7-7--0-0-0-0-0--2-2-2-2-2--4-4-4-4-4--7-7-7-7-7-|
D|----------------------------------------------------------------------------------------|

e|----------------------------------------------------------------------------------------|
B|----------------------------------------------------------------------------------------|
G|-2-2-2-2-2--4-4-4-4-4--6-6-6-6-6--9-9-9-9-9--2-2-2-2-2--4-4-4-4-4--6-6-6-6-6------------|
D|-2-2-2-2-2--4-4-4-4-4--6-6-6-6-6--9-9-9-9-9--2-2-2-2-2--4-4-4-4-4--6-6-6-6-6--6-6-6-6-6-|
A|-0-0-0-0-0--2-2-2-2-2--4-4-4-4-4--7-7-7-7-7--0-0-0-0-0--2-2-2-2-2--4-4-4-4-4--6-6-6-6-6-|
D|------------------------------------------------------------------------------6-6-6-6-6-|

SOLO
e|--------------------------------------------------------|
B|--------------------------------------------------------|
G|--------------------------------------------------------|    2X
D|--------------------------------------------------------|
A|--------------------------------------------------------|
E|-0-0-0--3-2-0--3-2-0--5-5-5--0-0-0--3-2-0--3-2-0--5-5-5-|

e|--------------------------------------------------------|
B|--------------------------------------------------------|
G|--------------------------------------------------------|    2X
D|-0-0-0--3-2-0--3-2-0--5-5-5--0-0-0--3-2-0--3-2-0--5-5-5-|
A|-0-0-0--3-2-0--3-2-0--5-5-5--0-0-0--3-2-0--3-2-0--5-5-5-|
D|-0-0-0--3-2-0--3-2-0--5-5-5--0-0-0--3-2-0--3-2-0--5-5-5-|

CHORUS
e|----------------------------------------------------------------------------------------|
B|----------------------------------------------------------------------------------------|
G|-2-2-2-2-2--4-4-4-4-4--6-6-6-6-6--9-9-9-9-9--2-2-2-2-2--4-4-4-4-4--6-6-6-6-6--9-9-9-9-9-|

  4X
A|-0-0-0-0-0--2-2-2-2-2--4-4-4-4-4--7-7-7-7-7--0-0-0-0-0--2-2-2-2-2--4-4-4-4-4--7-7-7-7-7-|
D|----------------------------------------------------------------------------------------|

OUTRO
e|--------------------------------------------------------------------------------------|
B|--------------------------------------------------------------------------------------|

   4X
D|-6-6-6-6-6-6-6-6-6-6----------------------4-4-4-4-4-4-4-4-4-4-4-4-4-4-4-4-4-4-4-4-4-4-|
A|-4-4-4-4-4-4-4-4-4-4--2-2-2-2-2-2-2-2-2-2-2-2-2-2-2-2-2-2-2-2-2-2-2-2-2-2-2-2-2-2-2-2-|
D|----------------------2-2-2-2-2-2-2-2-2-2---------------------------------------------|

e|--------------------------------------------------------|
B|--------------------------------------------------------|
G|--------------------------------------------------------|    4X
D|-0-0-0--3-2-0--3-2-0--5-5-5--0-0-0--3-2-0--3-2-0--5-5-5-|
A|-0-0-0--3-2-0--3-2-0--5-5-5--0-0-0--3-2-0--3-2-0--5-5-5-|
D|-0-0-0--3-2-0--3-2-0--5-5-5--0-0-0--3-2-0--3-2-0--5-5-5-|


e|----------------------------------------------|
B|----------------------------------------------|
G|----------------------------------------------|
D|-0-x-x-0-x-x-0-x-x-0-x-x-0-0-x-0-0-x-0-2-5-3~-|
A|-0-x-x-0-x-x-0-x-x-0-x-x-0-0-x-0-0-x-0-2-5-3~-|
D|-0-x-x-0-x-x-0-x-x-0-x-x-0-0-x-0-0-x-0-2-5-3~-|
Suggest correction
comments
print report bad tab
guest
You may want to rate the tab now too:
select rating
Please do not post tabs as comments. Select "correction" instead!