Oops, an error
Loading. Please wait.

Jars Tab

version 1
version 1

Whole song

Interactive

98,770 views 18 this week
20 commentsread comments
1 2 3 4 5
x 23
add to favorites
launch autoscroll
font size
0
reset
how to read this tab
guitar tuner
Autoscroll
slow
fast
+/-
esc
set tempo
stop
Help us to improve Ultimate-Guitar.com Take our survey!
×
Author
Difficulty
Tuning
novice
B F# B E G# C#
artist-Chevelle
song-Jars
album-Sci-Fi Crimes
label-Epic
tabbed by-MetalSlayer09


Ok guys as you can tell I've mad a few corrections from last time, changed the tuning
fixed that messed up pre-chorus and threw in the
lyrics for the heck of it. Anyhow I am 99.9 percent sure this is correct unless I made a
that I didn't see to correct, with that said go

have some fun!

Tuning: Drop B (b f# b e g# c#)

   [Intro/Verse]
      Hold            onto  chance        Lest we bleed ourselves                  then
C#|--------------------------------------------------------------------------------------|
G#|--------------------------------------------------------------------------------------|
E |--------------------------------------------------------------------------------------|
B |--------------------------------------------------------------------------------------|
F#|--------------------------------------------------------------------------------------|
B |-12-12-0-12-15-15-0-15-10-10-0-10-8-8-0-8--12-12-0-12-15-15-0-15-10-10-0-10-8-8-0-----|


      save            for the pets        They're the lonliest              put  into
C#|-------------------------------------------------------------------------------------|
G#|-------------------------------------------------------------------------------------|
E |-------------------------------------------------------------------------------------|
B |-------------------------------------------------------------------------------------|
F#|-------------------------------------------------------------------------------------|
B |-12-12-0-12-15-15-0-15-10-10-0-10-8-8-0-8--12-12-0-12-15-15-0-15-10-10-0-10-8-8-0-8--|


[Pre-Chorus]

      jars               we'll save this earth put into jars      we'll save this earth
   we can't
C#|---------------------------------------------------------------------------------------------|
G#|---------------------------------------------------------------------------------------------|
E |------0-----------0-----------0-----------0-----------0-----------0-----------0-----------0--|
B |--7-------7---7-------7---7-------7---7-------7----7-------7---7-------7---7-------7---7-----|
F#|----5---5-------5---5-------5---5-------5---5--------5---5-------5---5-------5---5-------5---|
B |-0----------0-----------0-----------0------------0-----------0-----------0-----------0-------|

[Chorus]

      both          become         the    same  pawn   thats  made  to fall
C#|-----------------------------------------------------------------------------|
G#|-----------------------------------------------------------------------------|
E |-----------------------------------------------------------------------------|
B |--12-12-12-12-12-12-12-12-12-12-12-12-12-12-3-3-3-3-3-3-3-3-3-3-3-3-3-3------|
F#|--12-12-12-12-12-12-12-12-12-12-12-12-12-12-3-3-3-3-3-3-3-3-3-3-3-3-3-3------|
B |--12-12-12-12-12-12-12-12-12-12-12-12-12-12-3-3-3-3-3-3-3-3-3-3-3-3-3-3------|

      oil that tastes like blood  stole the summer scent from
C#|---------------------------------------------------------------|
G#|---------------------------------------------------------------|
E |---------------------------------------------------------------|
B |--8-8-8-8-8-8-8-8-8-8-8-8-8-8-5-5-5-5-5-5-5-5-5-5-5-5-5-5------|
F#|--8-8-8-8-8-8-8-8-8-8-8-8-8-8-5-5-5-5-5-5-5-5-5-5-5-5-5-5------|
B |--8-8-8-8-8-8-8-8-8-8-8-8-8-8-5-5-5-5-5-5-5-5-5-5-5-5-5-5------|

      me       to you        your    stabbing   me through you  your stabbing
C#|------------------------------------------------------------------------------|
G#|------------------------------------------------------------------------------|
E |------------------------------------------------------------------------------|
B |--12-12-12-12-12-12-12-12-12-12-12-12-12-12-3-3-3-3-3-3-3-3-3-3-3-3-3-3-------|
F#|--12-12-12-12-12-12-12-12-12-12-12-12-12-12-3-3-3-3-3-3-3-3-3-3-3-3-3-3-------|
B |--12-12-12-12-12-12-12-12-12-12-12-12-12-12-3-3-3-3-3-3-3-3-3-3-3-3-3-3-------|

      you  through him and betting most of            this
C#|---------------------------------------------------------------|
G#|---------------------------------------------------------------|
E |---------------------------------------------------------------|
B |--8-8-8-8-8-8-8-8-8-8-8-8-8-8-5-5-5-5-5-5-5-5-5-5-5-5-5-5------|
F#|--8-8-8-8-8-8-8-8-8-8-8-8-8-8-5-5-5-5-5-5-5-5-5-5-5-5-5-5------|
B |--8-8-8-8-8-8-8-8-8-8-8-8-8-8-5-5-5-5-5-5-5-5-5-5-5-5-5-5------|

     world              we'll add enough of the  world
C#|---------------------------------------------------------------------------------|
G#|---------------------------------------------------------------------------------|
E |---------------------------------------------------------------------------------|
B |---------------------------------------------------------------------------------|
F#|--------------------------------------------3-3-0-3-7-7-0-7-5-5-0-5-5-7-3-0------|
B |-12-12-0-12-15-15-0-15-10-10-0-10-8-8-0-8---3-3-0-3-7-7-0-7-5-5-0-5-5-7-3-0------|

[Verse 2]

      Steal            from  yourselves   it never felt so good                     and
C#|-------------------------------------------------------------------------------------|
G#|-------------------------------------------------------------------------------------|
E |-------------------------------------------------------------------------------------|
B |-------------------------------------------------------------------------------------|
F#|-------------------------------------------------------------------------------------|
B |-12-12-0-12-15-15-0-15-10-10-0-10-8-8-0-8--12-12-0-12-15-15-0-15-10-10-0-10-8-8-0-8--|


      feed              from their hand's confused by opposites              put  into
C#|-------------------------------------------------------------------------------------|
G#|-------------------------------------------------------------------------------------|
E |-------------------------------------------------------------------------------------|
B |-------------------------------------------------------------------------------------|
F#|-------------------------------------------------------------------------------------|
B |-12-12-0-12-15-15-0-15-10-10-0-10-8-8-0-8--12-12-0-12-15-15-0-15-10-10-0-10-8-8-0-8--|


[Pre-Chorus]

      jars               we'll save this earth put into jars      we'll save this earth
   we can't
C#|---------------------------------------------------------------------------------------------|
G#|---------------------------------------------------------------------------------------------|
E |------0-----------0-----------0-----------0-----------0-----------0-----------0-----------0--|
B |--7-------7---7-------7---7-------7---7-------7----7-------7---7-------7---7-------7---7-----|
F#|----5---5-------5---5-------5---5-------5---5--------5---5-------5---5-------5---5-------5---|
B |-0----------0-----------0-----------0------------0-----------0-----------0-----------0-------|

[Chorus]

      both          become         the    same  pawn   thats  made  to fall
C#|-----------------------------------------------------------------------------|
G#|-----------------------------------------------------------------------------|
E |-----------------------------------------------------------------------------|
B |--12-12-12-12-12-12-12-12-12-12-12-12-12-12-3-3-3-3-3-3-3-3-3-3-3-3-3-3------|
F#|--12-12-12-12-12-12-12-12-12-12-12-12-12-12-3-3-3-3-3-3-3-3-3-3-3-3-3-3------|
B |--12-12-12-12-12-12-12-12-12-12-12-12-12-12-3-3-3-3-3-3-3-3-3-3-3-3-3-3------|

      oil that tastes like blood  stole the summer scent from
C#|---------------------------------------------------------------|
G#|---------------------------------------------------------------|
E |---------------------------------------------------------------|
B |--8-8-8-8-8-8-8-8-8-8-8-8-8-8-5-5-5-5-5-5-5-5-5-5-5-5-5-5------|
F#|--8-8-8-8-8-8-8-8-8-8-8-8-8-8-5-5-5-5-5-5-5-5-5-5-5-5-5-5------|
B |--8-8-8-8-8-8-8-8-8-8-8-8-8-8-5-5-5-5-5-5-5-5-5-5-5-5-5-5------|

      me       to you        your    stabbing   me through you  your stabbing
C#|------------------------------------------------------------------------------|
G#|------------------------------------------------------------------------------|
E |------------------------------------------------------------------------------|
B |--12-12-12-12-12-12-12-12-12-12-12-12-12-12-3-3-3-3-3-3-3-3-3-3-3-3-3-3-------|
F#|--12-12-12-12-12-12-12-12-12-12-12-12-12-12-3-3-3-3-3-3-3-3-3-3-3-3-3-3-------|
B |--12-12-12-12-12-12-12-12-12-12-12-12-12-12-3-3-3-3-3-3-3-3-3-3-3-3-3-3-------|

      you  through him and betting most of            this
C#|---------------------------------------------------------------|
G#|---------------------------------------------------------------|
E |---------------------------------------------------------------|
B |--8-8-8-8-8-8-8-8-8-8-8-8-8-8-5-5-5-5-5-5-5-5-5-5-5-5-5-5------|
F#|--8-8-8-8-8-8-8-8-8-8-8-8-8-8-5-5-5-5-5-5-5-5-5-5-5-5-5-5------|
B |--8-8-8-8-8-8-8-8-8-8-8-8-8-8-5-5-5-5-5-5-5-5-5-5-5-5-5-5------|

     world              we'll add enough of the  world
C#|---------------------------------------------------------------------------------|
G#|---------------------------------------------------------------------------------|
E |---------------------------------------------------------------------------------|
B |---------------------------------------------------------------------------------|
F#|--------------------------------------------3-3-0-3-7-7-0-7-5-5-0-5-5-7-3-0------|
B |-12-12-0-12-15-15-0-15-10-10-0-10-8-8-0-8---3-3-0-3-7-7-0-7-5-5-0-5-5-7-3-0------|

[Interlude]
       This world                                      we'll add    enough
C#|-1717171717171717171717171717171715151513131312121212---------------------|
G#|-----------------------------------------------------13131313131313-------|
E |--------------------------------------------------------------------------|
B |--------------------------------------------------------------------------|
F#|--------------------------------------------------------------------------|
B |--------------------------------------------------------------------------|

      enough            of the       world
C#|--------------------------------12121212121212121313131310-------|
G#|-----------------------------------------------------------------|
E |-14141414141414141414141414141414--------------------------------|
B |-----------------------------------------------------------------|
F#|-----------------------------------------------------------------|
B |-----------------------------------------------------------------|

C#|-10101010101010101010101010101010-|
G#|----------------------------------------|
E |----------------------------------------|
B |----------------------------------------|
F#|----------------------------------------|
B |----------------------------------------|

                     felling manic for a day                             depends
C#|--------------------------------------------------------------------------------------|
G#|--------------------------------------------------------------------------------------|
E |--------------------------------------------------------------------------------------|
B |--------------------------------------------------------------------------------------|
F#|--12-0-10^12-12~-0-10^12-12~-0-10^12-8~-10^12-12~-0-10^12-12~-0-10^12-12~-0-10^12-8~--|
B |--12-0-10^12-12~-0-10^12-12~-0-10^12-8~-10^12-12~-0-10^12-12~-0-10^12-12~-0-10^12-8~--|

    on the trends                         depends  on the surface        and if
C#|----------------------------------------------------------------------------------|
G#|----------------------------------------------------------------------------------|
E |----------------------------------------------------------------------------------|
B |----------------------------------------------------------------------------------|
F#|--10^12-12~-0-10^12-12~-0-10^12-12~-0-10^12-8~-10^12-12~-0-10^12-12~-0-10^12------|
B |--10^12-12~-0-10^12-12~-0-10^12-12~-0-10^12-8~-10^12-12~-0-10^12-12~-0-10^12------|

      the sun never sets, we can't
C#|--------------------------|
G#|--------------------------|
E |--------------------------|
B |--------------------------|
F#|--12~-0-10^12-8-0-10------|
B |--12~-0-10^12-8-0-10------|


[Chorus]

      both          become         the    same  pawn   that's  made  to fall
C#|-----------------------------------------------------------------------------|
G#|-----------------------------------------------------------------------------|
E |-----------------------------------------------------------------------------|
B |--12-12-12-12-12-12-12-12-12-12-12-12-12-12-3-3-3-3-3-3-3-3-3-3-3-3-3-3------|
F#|--12-12-12-12-12-12-12-12-12-12-12-12-12-12-3-3-3-3-3-3-3-3-3-3-3-3-3-3------|
B |--12-12-12-12-12-12-12-12-12-12-12-12-12-12-3-3-3-3-3-3-3-3-3-3-3-3-3-3------|

      oil that tastes like blood  stole the summer scent from
C#|---------------------------------------------------------------|
G#|---------------------------------------------------------------|
E |---------------------------------------------------------------|
B |--8-8-8-8-8-8-8-8-8-8-8-8-8-8-5-5-5-5-5-5-5-5-5-5-5-5-5-5------|
F#|--8-8-8-8-8-8-8-8-8-8-8-8-8-8-5-5-5-5-5-5-5-5-5-5-5-5-5-5------|
B |--8-8-8-8-8-8-8-8-8-8-8-8-8-8-5-5-5-5-5-5-5-5-5-5-5-5-5-5------|

      me       to you        your    stabbing   me through you  your stabbing
C#|------------------------------------------------------------------------------|
G#|------------------------------------------------------------------------------|
E |------------------------------------------------------------------------------|
B |--12-12-12-12-12-12-12-12-12-12-12-12-12-12-3-3-3-3-3-3-3-3-3-3-3-3-3-3-------|
F#|--12-12-12-12-12-12-12-12-12-12-12-12-12-12-3-3-3-3-3-3-3-3-3-3-3-3-3-3-------|
B |--12-12-12-12-12-12-12-12-12-12-12-12-12-12-3-3-3-3-3-3-3-3-3-3-3-3-3-3-------|

      you  through him and betting most of            this
C#|---------------------------------------------------------------|
G#|---------------------------------------------------------------|
E |---------------------------------------------------------------|
B |--8-8-8-8-8-8-8-8-8-8-8-8-8-8-5-5-5-5-5-5-5-5-5-5-5-5-5-5------|
F#|--8-8-8-8-8-8-8-8-8-8-8-8-8-8-5-5-5-5-5-5-5-5-5-5-5-5-5-5------|
B |--8-8-8-8-8-8-8-8-8-8-8-8-8-8-5-5-5-5-5-5-5-5-5-5-5-5-5-5------|

      world                                     we'll  add  enough  of  the
C#|-----------------------------------------------------------------------------|
G#|-----------------------------------------------------------------------------|
E |-----------------------------------------------------------------------------|
B |--12-12-12-12-12-12-12-12-12-12-12-12-12-12-3-3-3-3-3-3-3-3-3-3-3-3-3-3------|
F#|--12-12-12-12-12-12-12-12-12-12-12-12-12-12-3-3-3-3-3-3-3-3-3-3-3-3-3-3------|
B |--12-12-12-12-12-12-12-12-12-12-12-12-12-12-3-3-3-3-3-3-3-3-3-3-3-3-3-3------|

      world
C#|---------------------------------------------------------------|
G#|---------------------------------------------------------------|
E |---------------------------------------------------------------|
B |--8-8-8-8-8-8-8-8-8-8-8-8-8-8-5-5-5-5-5-5-5-5-5-5-5-5-5-5------|
F#|--8-8-8-8-8-8-8-8-8-8-8-8-8-8-5-5-5-5-5-5-5-5-5-5-5-5-5-5------|
B |--8-8-8-8-8-8-8-8-8-8-8-8-8-8-5-5-5-5-5-5-5-5-5-5-5-5-5-5------|

      its  the  main  thing  you  shout               till the bitter
C#|------------------------------------------------------------------------------|
G#|------------------------------------------------------------------------------|
E |------------------------------------------------------------------------------|
B |--12-12-12-12-12-12-12-12-12-12-12-12-12-12-3-3-3-3-3-3-3-3-3-3-3-3-3-3-------|
F#|--12-12-12-12-12-12-12-12-12-12-12-12-12-12-3-3-3-3-3-3-3-3-3-3-3-3-3-3-------|
B |--12-12-12-12-12-12-12-12-12-12-12-12-12-12-3-3-3-3-3-3-3-3-3-3-3-3-3-3-------|

      end                                          into jars
C#|---------------------------------------------------------------|
G#|---------------------------------------------------------------|
E |---------------------------------------------------------------|
B |--8-8-8-8-8-8-8-8-8-8-8-8-8-8-5-5-5-5-5-5-5-5-5-5-5-5-5-5------|
F#|--8-8-8-8-8-8-8-8-8-8-8-8-8-8-5-5-5-5-5-5-5-5-5-5-5-5-5-5------|
B |--8-8-8-8-8-8-8-8-8-8-8-8-8-8-5-5-5-5-5-5-5-5-5-5-5-5-5-5------|

[Outro]

C#|-------------------------------------------------------------------------------------------|
G#|-------------------------------------------------------------------------------------------|
E |-------------------------------------------------------------------------------------------|
B |-------------------------------------------------------------------------------------------|
F#|--12-0-10^12-12~-0-10^12-12~-0-10^12-12~-0-10^12-12~-0-10^12-12~-0-10^12-12~-0-10^12-12~\--|
B |--12-0-10^12-12~-0-10^12-12~-0-10^12-12~-0-10^12-12~-0-10^12-12~-0-10^12-12~-0-10^12-12~\--|

 end with a pick scrape

I got the words from Chevelle's site (www.chevelleinc.com) and some of the corrections
based
upon what some of the commenters wrote in my first tab if you wanna see who they are
look at
the comments in my first Jars tab.

************************************

| ~  Vibrato
| /  slide
| ]  bar
| ^  hammer on or pull off
| ~  vibrato

************************************
Suggest correction
comments
print report bad tab
20 comments total. Showing first comments.
+1 reply
phasesevenfold 213 Jul 01, 2009 03:44 PM

It looks pretty good, thanks for tabbing this before the album comes out!

0 reply
metalslayer09 749 Jul 01, 2009 05:04 PM

thanks man, and thanks for givin me a good score too, can't wait for sci-fi crimes!

0 reply
nickdawg 10 Jul 04, 2009 08:56 PM

The opening riff, where you go up to the 15th fret, it doesn't come back down to 12 after the open. It stays at 15.

guest
You may want to rate the tab now too:
select rating
Wanna post a correction for this tab? Suggest correction