Oops, an error
Loading. Please wait.

Jars Bass Tab

version 2
version 2

Whole song

Interactive

2,964 views 1 this week
no commentswrite comment
1 2 3 4 5
x 4
add to favorites
launch autoscroll
font size
0
reset
guitar tuner
Autoscroll
slow
fast
+/-
esc
set tempo
stop
Help us to improve Ultimate-Guitar.com Take our survey!
×
Song: Jars
Band: Chevelle
Album: Sci Fi Crimes

I didnt actually tab all of this out, I just took the other guys version and
did three things with it: I changed it to five string bass, I put some notes
on the E string so that it wouldnt be out of tune or clicky against the
frets, and I changed a few parts that I felt werent completely accurate. So
feel free to give the majority of the credit for this tab to fobo11.


Intro- No bass for about 9 seconds


Main Riff (x2)
G |---------------------------------------------|
D |---------------------------------------------|
A |---------------------------------------------|
E |--7-7---7--10-10---10------------------------|
B |------0----------0-----10-10-0-10--8-8-0-8---|


Pre-chorus (x2)
G |----------------------------------------|
D |----------------------------------------|
A |----------------------------------------|
E |--7-7---7--7-----7----------------------|
B |------0------0-0----8-8-0-8--8-0-0-8----|

G |----------------------------------------|
D |----------------------------------------|
A |----------------------------------------|
E |----------------------------------------|
B |--5-5-0-5--5-0-0-5--7-7-0-7--7-0-0-7----|
 (2nd time, the 7s here ^ are 8s)


Chorus
G |------------------------------------|
D |------------------------------------|
A |------------------------------------|
E |--7-(x8)----------------------------|
B |----------3-(x8)--8-(x8)--5-(x8)----|

G |------------------------------------|
D |------------------------------------|
A |------------------------------------|
E |--7-(x8)--10-(x8)-------------------|
B |-------------------10-(x8)--8-(x8)--|


Post-chorus
G |---------------------------------------------|
D |---------------------------------------------|
A |---------------------------------------------|
E |--7-7---7--10-10---10------------------------|
B |------0----------0-----10-10-0-10--8-8-0-8---|


G |---------------------------------------------|
D |---------------------------------------------|
A |---------------------------------------------|
E |---------------------------------------------|
B |--3-3-0-3--7-7-0-7--5-5-0-5--8-10------------|


Main Riff (x4)


Pre Chorus (x2)


Chorus (x1)


Post-chorus (x2)


Interlude (x4)
G |-----------------------------------|
D |-----------------------------------|
A |-----------------------------------|
E |--7--7-8-7--7-8-7--7-8-7--5-5-5----|
B |-----------------------------------|


Chorus (x4)


Outro  (x7)
G |----------------------|
D |----------------------|
A |----------------------|
E |--7--7-8-7------------|
B |----------------------|


End
G |--------------|
D |--------------|
A |--------------|
E |--7\----------|
B |--------------|
Suggest correction
comments
print report bad tab
guest
You may want to rate the tab now too:
select rating
Wanna post a correction for this tab? Suggest correction